Ko Otani - Free Bird tab

===================================================
               Ko Otani - Free Bird

Opening theme for the anime series "Haibane Renmei"
===================================================

This song was created by the japanese composer
Ko Otani for the anime series "Haibane Renmei".
He is a founding member of the music production
company "Imagine", where he is currently signed.
http://www.imagine-music.co.jp/index.html


Tabbed by Pedro Macedo, A.K.A. Linkerman
Comments and ratings are very much appreciated!
E-mails to "o_samaritano-hellboy(at)sapo.pt"


Standard tuning

Violin
e|-----------------------------------12-13--12-----|
B|----------12~--12-12-13-15~--15-15------------15-|
G|-12-12-14----------------------------------------|
D|-------------------------------------------------|
A|-------------------------------------------------|
E|-------------------------------------------------|

e|-17-15------17-15------17-15--------------------|
B|-------15~--------15~--------18--17-15----15-15-|
G|---------------------------------------17-------|
D|------------------------------------------------|
A|------------------------------------------------|
E|------------------------------------------------|

e|-----------------------------------12-13--12-----|
B|----------12~--12-12-13-15~--15-15------------15-|
G|-12-12-14----------------------------------------|
D|-------------------------------------------------|
A|-------------------------------------------------|
E|-------------------------------------------------|

e|-17-15-17~--17-15-17~--17-15-17~--19-20-22-|
B|-------------------------------------------|
G|-------------------------------------------|
D|-------------------------------------------|
A|-------------------------------------------|
E|-------------------------------------------|

e|-13--12--10------10-------------10-12-13--12--10-----|
B|-------------13------10----10~--------------------13-|
G|------------------------12---------------------------|
D|-----------------------------------------------------|
A|-----------------------------------------------------|
E|-----------------------------------------------------|

e|------------------------------------|
B|-11-10----10---------------------10-|
G|-------12----12-10-12-10-9-10-12----|
D|------------------------------------|
A|------------------------------------|
E|------------------------------------|

e|-13--12--10------10-------------12-13-15-|
B|-------------13------10----10~-----------|
G|------------------------12---------------|
D|-----------------------------------------|
A|-----------------------------------------|
E|-----------------------------------------|

e|-13--12--10-----10-----------------------|
B|-------------13---------10~~-------------|
G|--------------------12-------------------|
D|------------------------------12---------|
A|--------------------------------------12-|
E|----------------------------------15-----|


Rhythm guitar:

 strum [ G - Dm ] x8
 and then keep strumming [ Dm ]


Piano ending
e|---14~-----14-12~-----12-11~-----11-10~-|
B|----------------------------------------|
G|-14-----14---------13---------12--------|
D|----------------------------------------|
A|----------------------------------------|
E|----------------------------------------|

Acoustic guitar ending
e|-----2~------4~------3~------2~-|
B|---3-------5-------4-------3----|
G|-2-------4-------3-------2------|
D|--------------------------------|
A|--------------------------------|
E|--------------------------------|
Tap to rate this tab
 
# A B C D E F G H I J K L M N O P Q R S T U V W X Y Z