Song name
# A B C D E F G H I J K L M N O P Q R S T U V W X Y Z

Kodaline - The Answer tab

Artist: Kodaline
Song: The Answer
Tuning: Standard

The other tab was great but there changes in the bass strings that weren't 
accounted for so I thought I'd post a new one.

Note: 
The bridge is what I think it sounds like. I sure some of the bass notes were 
played by another bass guitar or something but it sounds fine the way I tabbed.
For the outro, listen to the song to get the way he plays. He doesn't start the 
riff until he sings 'bit'. 
The song ends with the G chord.


Intro:

-----------------------------------------------------|
-----3-----3-----3-----3-----3-----3-----3-----3-----|
-----0-----0-----0-----0-----0-----0-----0-----0-----|
-----------------------------------------------------|
-----------------------------------------------------|
---3-----3-----3-----3-----3-----3-----3-----3-------|


Verse 1:

Watch your step or you might fall
-----------------------------------------------------|
-----3-----3-----3-----3-----3-----3-----3-----3-----|
-----0-----0-----0-----0-----0-----0-----0-----0-----|
-----------------------------------------------------|
-----------------------------------------------------|
---3-----3-----3-----3-----3-----3-----3-----2-------|

You act like you're a know it all
-----------------------------------------------------|
-----3-----3-----3-----3-----3-----3-----3-----3-----|
-----0-----0-----0-----0-----0-----0-----0-----0-----|
-----------------------------------------------------|
---------------------------------------------0-------|
---0-----0-----0-----0-----0-----0-----0-------------|

Yeah I used to do that     I used to be like that

-----------------------------------------------------|
-----3-----3-----3-----3-----3-----3-----3-----3-----|
-----0-----0-----0-----0-----0-----0-----0-----0-----|
---------------------------0-----0-----0-----0-------|
---3-----3-----3-----3-------------------------------|
-----------------------------------------------------|

Still feel a bit like that
-----------------------------------------------------|
-----3-----3-----3-----3-----3-----3-----3-----3-----|
-----0-----0-----0-----0-----0-----0-----0-----0-----|
-----------------------------------------------------|
---------------------------------------------2-------|
---3-----3-----3-----3-----3-----2-----3-------------|

You might think you found the one
Until your heart gets ripped and torn
Yeah I used to feel bad
I used to feel like that
still feel a bit like that


Chorus 1:

But I'm not searching for
-----------------------------------------------------|
-----3-----3-----3-----3-----3-----3-----3-----3-----|
-----0-----0-----0-----0-----0-----0-----0-----0-----|
--------------------------0-----0-----0-----0--------|
--3-----3-----3-----3--------------------------------|
-----------------------------------------------------|

the answer
-----------------------------------------------------|
-----3-----3-----3-----3-----3-----3-----3-----3-----|
-----0-----0-----0-----0-----0-----0-----0-----0-----|
-----------------------------------------------------|
--------------------------------------------2--------|
--3-----3-----3-----2-----0-----0-----0--------------|

I'm not looking for
-----------------------------------------------------|
-----3-----3-----3-----3-----3-----3-----3-----3-----|
-----0-----0-----0-----0-----0-----0-----0-----0-----|
--------------------------0-----0-----0-----0--------|
--3-----3-----3-----3--------------------------------|
-----------------------------------------------------|

the truth
-----------------------------------------------------|
-----3-----3-----3-----3-----3-----3-----3-----3-----|
-----0-----0-----0-----0-----0-----0-----0-----0-----|
-----------------------------------------------------|
---------------------------------------------2-------|
---3-----3-----3-----3-----3-----2-----3-------------|

I'm just talking through
-----------------------------------------------------|
-----3-----3-----3-----3-----3-----3-----3-----3-----|
-----0-----0-----0-----0-----0-----0-----0-----0-----|
--------------------------0-----0-----0-----0--------|
--3-----3-----3-----3--------------------------------|
-----------------------------------------------------|

a speaker                                Because that's
-----------------------------------------------------|
-----3-----3-----3-----3-----3-----3-----3-----3-----|
-----0-----0-----0-----0-----0-----0-----0-----0-----|
--------------------------------------0-----0--------|
-----------------------------------------------------|
--3-----3-----2-----2-----0-----0--------------------|

all that I have ever learned to
-----------------------------------------------------|
-----3-----3-----3-----3-----3-----3-----3-----3-----|
-----0-----0-----0-----0-----0-----0-----0-----0-----|
--------------------------0-----0-----0-----0--------|
--3-----3-----3-----3--------------------------------|
-----------------------------------------------------|

do
-----------------------------------------------------|
-----3-----3-----3-----3-----3-----3-----3-----3-----|
-----0-----0-----0-----0-----0-----0-----0-----0-----|
-----------------------------------------------------|
---------------------------------------------2-------|
---3-----3-----3-----3-----3-----2-----3-------------|


Verse 2 (Repeat Verse 1 tabs):

Use your mind and make it talk
Cause in this world it's all you've got
And we all fall down
from the highest clouds
to the lowest ground

Loneliness is worst of all
When you've got no one else to call
Feeling kind of sad 
when the times are bad
times are getting bad


Chorus 2:

But I'm not searching for
-----------------------------------------------------|
-----3-----3-----3-----3-----3-----3-----3-----3-----|
-----0-----0-----0-----0-----0-----0-----0-----0-----|
--------------------------0-----0-----0-----0--------|
--3-----3-----3-----3--------------------------------|
-----------------------------------------------------|

the answer
-----------------------------------------------------|
-----3-----3-----3-----3-----3-----3-----3-----3-----|
-----0-----0-----0-----0-----0-----0-----0-----0-----|
-----------------------------------------------------|
--------------------------------------------2--------|
--3-----3-----3-----2-----0-----0-----0--------------|

No, I'm not looking for
-----------------------------------------------------|
-----3-----3-----3-----3-----3-----3-----3-----3-----|
-----0-----0-----0-----0-----0-----0-----0-----0-----|
--------------------------0-----0-----0-----0--------|
--3-----3-----3-----3--------------------------------|
-----------------------------------------------------|

the truth
-----------------------------------------------------|
-----3-----3-----3-----3-----3-----3-----3-----3-----|
-----0-----0-----0-----0-----0-----0-----0-----0-----|
-----------------------------------------------------|
---------------------------------------------2-------|
---3-----3-----3-----3-----3-----2-----3-------------|

I'm just talking through
-----------------------------------------------------|
-----3-----3-----3-----3-----3-----3-----3-----3-----|
-----0-----0-----0-----0-----0-----0-----0-----0-----|
--------------------------0-----0-----0-----0--------|
--3-----3-----3-----3--------------------------------|
-----------------------------------------------------|

a speaker                                Because that's
-----------------------------------------------------|
-----3-----3-----3-----3-----3-----3-----3-----3-----|
-----0-----0-----0-----0-----0-----0-----0-----0-----|
--------------------------------------0-----0--------|
-----------------------------------------------------|
--3-----3-----2-----2-----0-----0--------------------|

all that I could ever learn to
-----------------------------------------------------|
-----3-----3-----3-----3-----3-----3-----3-----3-----|
-----0-----0-----0-----0-----0-----0-----0-----0-----|
--------------------------0-----0-----0-----0--------|
--3-----3-----3-----3--------------------------------|
-----------------------------------------------------|

do                                     Because that's
-----------------------------------------------------|
-----3-----3-----3-----3-----3-----3-----3-----3-----|
-----0-----0-----0-----0-----0-----0-----0-----0-----|
-----------------------------------------------------|
-----------------------------------------------------|
---0-----0-----0-----0-----0-----0-----0-----0-------|

all that I have ever learned to
-----------------------------------------------------|
-----3-----3-----3-----3-----3-----3-----3-----3-----|
-----0-----0-----0-----0-----0-----0-----0-----0-----|
--------------------------0-----0-----0-----0--------|
--3-----3-----3-----3--------------------------------|
-----------------------------------------------------|

do                                     What about
-----------------------------------------------------|
-----3-----3-----3-----3-----3-----3-----3-----3-----|
-----0-----0-----0-----0-----0-----0-----0-----0-----|
-----------------------------------------------------|
-----------------------------------------------------|
---3-----3-----3-----3-----3-----3-----3-----3-------|


Bridge

you                                   what about
-----------------------------------------------------|
-----3-----3-----3-----3-----3-----3-----3-----3-----|
-----0-----0-----0-----0-----0-----0-----0-----0-----|
--------------------------0-----0-----0-----0--------|
--3-----3-----3-----3--------------------------------|
-----------------------------------------------------|

you                                   what about
-----------------------------------------------------|
-----3-----3-----3-----------3-----3-----3-----3-----|
-----0-----0-----0-----------0-----0-----0-----0-----|
-----------------------------------------------------|
--2-----2-----2-----0--2--3-----3-----3-----3--------|
-----------------------------------------------------|  Play this set twice


you                                   what about
-----------------------------------------------------|
-----3-----3-----3-----3-----3-----3-----3-----3-----|
-----0-----0-----0-----0-----0-----0-----0-----0-----|
--------------------------0-----0-----0-----0--------|
--3-----3-----3-----3--------------------------------|
-----------------------------------------------------|
you                                   what about
-----------------------------------------------------|
-----3-----3-----------------3-----3-----3-----3-----|
-----0-----0-----------------0-----0-----0-----0-----|
-----------------------------------------------------|
--2-----2-----2-----0--2--3-----3-----3-----3--------|
-----------------3-----------------------------------|
you                                   what about
-----------------------------------------------------|
-----3-----3-----3-----3-----3-----3-----3-----3-----|
-----0-----0-----0-----0-----0-----0-----0-----0-----|
--------------------------0-----0-----0-----0--------|
--3-----3-----3-----3--------------------------------|
-----------------------------------------------------|
you                                   what about
-----------------------------------------------------|
-----3-----3-----3-----3-----3-----3-----3-----3-----|
-----0-----0-----0-----0-----0-----0-----0-----0-----|
--2-----2-----2-----2-----2-----2-----2-----2--------|
-----------------------------------------------------|
-----------------------------------------------------|
you                                   what about
-----------------------------------------------------|
-----3-----3-----3-----3-----3-----3-----3-----3-----|
-----0-----0-----0-----0-----0-----0-----0-----0-----|
--------------------------0-----0-----0-----0--------|
--3-----3-----3-----3--------------------------------|
-----------------------------------------------------|
you                                   what about
-----------------------------------------------------|
-----3-----3-----------------3-----3-----3-----3-----|
-----0-----0-----------------0-----0-----0-----0-----|
-----------------------------------------------------|
--2-----2-----2-----0--2--3-----3-----3-----3--------|
-----------------3-----------------------------------|

you                                   what about
-----------------------------------------------------|
-----3-----3-----3-----3-----3-----3-----3-----3-----|
-----0-----0-----0-----0-----0-----0-----0-----0-----|
--------------------------0-----0-----0-----0--------|
--3-----3-----3-----3--------------------------------|
-----------------------------------------------------|
you                                   
-----------------------------------------------------|
-----3-----3-----3-----3-----3-----3-----3-----3-----|
-----0-----0-----0-----0-----0-----0-----0-----0-----|
-----------------------------------------------------|
-----------------------------------------------------|
---3-----3-----3-----3-----3-----3-----3-----3-------|


Outro:

So watch your step or you might fall
-----------------------------------------------------|
-----3-----3-----3-----3-----3-----3-----3-----3-----|
-----0-----0-----0-----0-----0-----0-----0-----0-----|
-----------------------------------------------------|
-----------------------------------------------------|
---3-----3-----3-----3-----3-----3-----3-----2-------|

You act like you're a know it all
-----------------------------------------------------|
-----3-----3-----3-----3-----3-----3-----3-----3-----|
-----0-----0-----0-----0-----0-----0-----0-----0-----|
-----------------------------------------------------|
---------------------------------------------0-------|
---0-----0-----0-----0-----0-----0-----0-------------|

Yeah I used to do that     I used to be like that

-----------------------------------------------------|
-----3-----3-----3-----3-----3-----3-----3-----3-----|
-----0-----0-----0-----0-----0-----0-----0-----0-----|
---------------------------0-----0-----0-----0-------|
---3-----3-----3-----3-------------------------------|
-----------------------------------------------------|

I'm still a bit like that                               G
-----------------------------------------------------|
-----3-----3-----3-----3-----3-----3-----3-----3-----|
-----0-----0-----0-----0-----0-----0-----0-----0-----|
---------------------------------------0-------------|
---------------------------------2-------------------|
---3-----3-----3-----2-----3-----------------2-------|
Tap to rate this tab
# A B C D E F G H I J K L M N O P Q R S T U V W X Y Z