Song name
# A B C D E F G H I J K L M N O P Q R S T U V W X Y Z

Koji Kondo - Minuet Of Forest tab

e-----------------------------10-7-----5-7-5-|
B----3----------------------3----------------|
G------4-----2-4-2---------------------------|
D--0-----------------------------------------|
A--------------------------------------------|
E--------------------------------------------|

e--0-5-3---5---3-5-3-2-----0-|
B----------------------------|
G----------------------------|
D----------------------------|
A----------------------------|
E----------------------------|

----------
Tap to rate this tab
 
# A B C D E F G H I J K L M N O P Q R S T U V W X Y Z