Song name
# A B C D E F G H I J K L M N O P Q R S T U V W X Y Z

Koji Kondo - Windmill Hut tab

Guitar 1
Lead Guitar

E||----------------|--------------|------|------|------|------|------|------|
B||----------------|--------------|------|------|------|------|------|------|
G||----------------|--------------|------|------|------|------|------|------|
D||--12------------|--------------|------|------|------|------|------|------|
A||----------------|--------------|------|------|------|------|------|------|
E||----------------|--------------|------|------|------|------|------|------|

--------------------|--------------------|--12------13--12--13--|
----------15--------|----------15--------|----------------------|
------14------------|------14------------|----------------------|
--12----------------|--12----------------|----------------------|
--------------------|--------------------|----------------------|
--------------------|--------------------|----------------------|

--12----------------|----------------------|----------------|
------13------------|----------------------|----------------|
----------14--------|--14--------------12--|--14------------|
--------------------|--------12----15------|----------------|
--------------------|----------------------|----------------|
--------------------|----------------------|----------------|

----------------------|----------------|--------------------|
----------------------|----------------|----------15--------|
--14--------------12--|----------------|------14------------|
--------12----15------|--14------------|--12----------------|
----------------------|----------------|--------------------|
----------------------|----------------|--------------------|

--------------------|--12------13--12--13--|--12----------------|
----------15--------|----------------------|------13------------|
------14------------|----------------------|----------14--------|
--12----------------|----------------------|--------------------|
--------------------|----------------------|--------------------|
--------------------|----------------------|--------------------|

----------------------|------------------||
----------------------|------------------||
--14--------------12--|--14--------14----||
--------12----15------|------------------||
----------------------|------------------||
----------------------|------------------||
Guitar 2
Rhythm Guitar

E||------5----5----|------7--------|------8----8----|------7--------|
B||------3----3----|------5--------|------6----6----|------5--------|
G||------2----2----|------4--------|------5----5----|------4--------|
D||----------------|---------------|----------------|---------------|
A||----------------|---------------|----------------|---------------|
E||----------------|---------------|----------------|---------------|

------5----5----|------7--------|------8----8----|------7--------|
------3----3----|------5--------|------6----6----|------5--------|
------2----2----|------4--------|------5----5----|------4--------|
----------------|---------------|----------------|---------------|
----------------|---------------|----------------|---------------|
----------------|---------------|----------------|---------------|

------5----5----|------7--------|------8----8----|------7--------|
------3----3----|------5--------|------6----6----|------5--------|
------2----2----|------4--------|------5----5----|------4--------|
----------------|---------------|----------------|---------------|
----------------|---------------|----------------|---------------|
----------------|---------------|----------------|---------------|

------5----5----|------5--------|------5----5----|------5--------|
------3----3----|------3--------|------3----3----|------3--------|
------2----2----|------2--------|------2----2----|------2--------|
----------------|---------------|----------------|---------------|
----------------|---------------|----------------|---------------|
----------------|---------------|----------------|---------------|

------5----5----|------7--------|------8----8----|------7--------|
------3----3----|------5--------|------6----6----|------5--------|
------2----2----|------4--------|------5----5----|------4--------|
----------------|---------------|----------------|---------------|
----------------|---------------|----------------|---------------|
----------------|---------------|----------------|---------------|

------5----5----|------5--------||
------3----3----|------3--------||
------2----2----|------2--------||
----------------|---------------||
----------------|---------------||
----------------|---------------||

-----------------------------
Tap to rate this tab
# A B C D E F G H I J K L M N O P Q R S T U V W X Y Z