Song name
# A B C D E F G H I J K L M N O P Q R S T U V W X Y Z

Kommil Foo - Madrid tab

Madrid
Holden

www.holden.fr

Tab par Marcos Fuentes


Fm
Madrid
              F#
maquillée de strass
                 Fm
malaxée jusqu'au thorax
se prélassait depuis longtemps déjà

Fm
Madrid
               F#
saupoudrée de sucre
                   Fm
tout le long des allées en stuc
se préparait sans trop savoir pourquoi

Fm          F#


Madrid
une souricière
une avenue sans marche arrière
un rendez vous où personne ne viendra

Madrid
où sont tes icônes
à la voix cassée ou aphone
où sont les anges qui dormaient sur les toits

------------------------------------------8---8---------|
------------------------------------------9---9---------|
------------------------------------------10--10--------|
---------------/8-------------3-6---------10--10--------|
--------3--6----------------4-------------8---8---------|
--3-4-4-----------------6-6-----------------------------|

--------------------------------------------------------|
--------------------------------------------------------|
--------------------------------------------------------|
----------------------------------------8-8/10-8----8---|
-------11----11-11-11-11----11-11-11-11----------11-----|
-3-/----------------------------------------------------|

--------------------------------------------------------|
-----------------------6-----6------6-----6-------------|
--------------------------8------------8----------------|
--11-11-11-11/10-10-------------------------------------|
--------------------------------------------------------|
--------------------------------------------------------|


deux filles
au rayon lumière
devant un mur de réverbère
se donnaient la main pour la première fois

deux filles
qui faisaient la paire
riaient si fort que la plus belle
a bien failli mourir- mourir de joie
Tap to rate this tab
# A B C D E F G H I J K L M N O P Q R S T U V W X Y Z