Song name
# A B C D E F G H I J K L M N O P Q R S T U V W X Y Z

Kongos - Come With Me Now tab

Tabbed by: Joshua Garcia (joshuag523@aol.com)

Tabs for the song: Come With Me Now by Kongos
Please rate and let me know if you have any corrections. Thank you.


This song has a custom tuning. Just tune each string a note higher
from Standard.


Tuning: Custom (Eb Bb Eb Ab C F)


Intro
Guitar 1:
F ||-----------------------------------------------|
C ||-----------------------------------------------|
Ab||--/7~---7--7--------------/7~---77-7-----------|
Eb||--/7~---7--7--5--5--5--x--/7~---77-7--3--3--0--| x2
Bb||--------------5--5--5--x--------------3--3--0--|
Eb||-----------------------------------------------|


F ||-------------------------------------|
C ||-------------------------------------|
Ab||-----------7------------------7------|
Eb||--5--5--5--7--7~-----5--5--5--7--7~--|
Bb||--5--5--5-----5~-----5--5--5-----5~--|
Eb||-------------------------------------|



Chorus
Guitar 1:
F ||-----------------------------------------------|
C ||-----------------------------------------------|
Ab||--/7~---7--7--------------/7~---77-7-----------|
Eb||--/7~---7--7--5--5--5--x--/7~---77-7--3--3--0--| x4
Bb||--/5~---5--5--5--5--5--x--/5~---55-5--3--3--0--|
Eb||--------------5--5--5--x--------------3--3--0--|


F ||------------------|
C ||------------------|
Ab||-----------7------|
Eb||--5--5--5--7--7~--|
Bb||--5--5--5-----5~--|
Eb||------------------|



Verse
Guitar 1:
F ||-----------------------------------------------|
C ||-----------------------------------------------|
Ab||-----------------------------------------------|
Eb||--/7~---7--7--------------/7~---77-7-----------| x2
Bb||--/5~---------5--5--5--x--/5~---------3--3--0--|
Eb||-----------------------------------------------|



Pre-Chorus
Guitar 1:
F ||-----------------------------------------------|
C ||-----------------------------------------------|
Ab||--/7~---7--7--------------/7~---77-7-----------|
Eb||--/7~---7--7--5--5--5--x--/7~---77-7--3--3--0--|
Bb||--------------5--5--5--x--------------3--3--0--|
Eb||-----------------------------------------------|


F ||--------------------------------------------|
C ||--------------------------------------------|
Ab||--/7~---7--7--------------/7~---77-7--------|
Eb||--/7~---7--7--5--5--5--x--/7~---77-7--3--3--|
Bb||--------------5--5--5--x--------------3--3--|
Eb||--------------------------------------------|



Chorus
Guitar 1:
F ||-----------------------------------------------|
C ||-----------------------------------------------|
Ab||--/7~---7--7--------------/7~---77-7-----------|
Eb||--/7~---7--7--5--5--5--x--/7~---77-7--3--3--0--| x2
Bb||--/5~---5--5--5--5--5--x--/5~---55-5--3--3--0--|
Eb||--------------5--5--5--x--------------3--3--0--|



Verse
Guitar 1:
F ||-----------------------------------------------|
C ||-----------------------------------------------|
Ab||-----------------------------------------------|
Eb||--/7~---7--7--------------/7~---77-7-----------| x2
Bb||--/5~---------5--5--5--x--/5~---------3--3--0--|
Eb||-----------------------------------------------|



Pre-Chorus
Guitar 1:
F ||-----------------------------------------------|
C ||-----------------------------------------------|
Ab||--/7~---7--7--------------/7~---77-7-----------|
Eb||--/7~---7--7--5--5--5--x--/7~---77-7--3--3--0--|
Bb||--------------5--5--5--x--------------3--3--0--|
Eb||-----------------------------------------------|


F ||--------------------------------------|
C ||--------------------------------------|
Ab||--/7~---7--7--------------/7~---77-7--|
Eb||--/7~---7--7--5--5--5--x--/7~---77-7--|
Bb||--------------5--5--5--x--------------|
Eb||--------------------------------------|



Interlude
Guitar 1:
F ||--12----12----12----12----13----13----13----13----10----10----10----10---------|
C ||-----11----11----11----11----11----11----11----11----10----10----10----10-10~--|
Ab||-------------------------------------------------------------------------------|
Eb||-------------------------------------------------------------------------------|
Bb||-------------------------------------------------------------------------------|
Eb||-------------------------------------------------------------------------------|


F ||--12----12----12----12----13----13----13----13----15----15----15----13---------|
C ||-----11----11----11----11----11----11----11----11----10----10----10----10-10~--|
Ab||-------------------------------------------------------------------------------|
Eb||-------------------------------------------------------------------------------|
Bb||-------------------------------------------------------------------------------|
Eb||-------------------------------------------------------------------------------|


F ||--12----12----12----12----13----13----13----13----10----10----10----10---------|
C ||-----11----11----11----11----11----11----11----11----10----10----10----10-10~--|
Ab||-------------------------------------------------------------------------------|
Eb||-------------------------------------------------------------------------------|
Bb||-------------------------------------------------------------------------------|
Eb||-------------------------------------------------------------------------------|


F ||--12----12----12----12----13----13----13----13----15----15----15----13-----|
C ||-----11----11----11----11----11----11----11----11----10----10----10----10--|
Ab||---------------------------------------------------------------------------|
Eb||---------------------------------------------------------------------------|
Bb||---------------------------------------------------------------------------|
Eb||---------------------------------------------------------------------------|


F ||--10----10----10~--|
C ||-----10----10------|
Ab||-------------------|
Eb||-------------------|
Bb||-------------------|
Eb||-------------------|


Guitar 2:
F ||-----------------------------------------------|
C ||-----------------------------------------------|
Ab||-----------------------------------------------|
Eb||--/7~---7--7--------------/7~---77-7-----------| x2
Bb||--/5~---------5--5--5--x--/5~---------3--3--0--|
Eb||-----------------------------------------------|


F ||-----------------------------------------------|
C ||-----------------------------------------------|
Ab||--/7~---7--7--------------/7~---77-7-----------|
Eb||--/7~---7--7--------------/7~---77-7-----------| x2
Bb||--------------5--5--5--x--------------3--3--0--|
Eb||-----------------------------------------------|


F ||-----------------------------------------------|
C ||-----------------------------------------------|
Ab||--/7~---7--7--------------/7~---77-7-----------|
Eb||--/7~---7--7--5--5--5--x--/7~---77-7--3--3--0--| x3
Bb||--------------5--5--5--x--------------3--3--0--|
Eb||-----------------------------------------------|


F ||-----------------------|
C ||-----------------------|
Ab||--/7~---7--7-----------|
Eb||--/7~---7--7--5--5--5--|
Bb||--------------5--5--5--|
Eb||-----------------------|


F ||------------------|
C ||------------------|
Ab||-----------7------|
Eb||--5--5--5--7--7~--|
Bb||--5--5--5-----5~--|
Eb||------------------|



Slide Solo

*I don't have a slide guitar, but you can play it on the electric like this* 

Guitar 1:
F ||--12b14~----12b14~----12b14~--12b14~--12b14~--14r12----10------|
C ||----------------------------------------------------10----10~--|
Ab||---------------------------------------------------------------|
Eb||---------------------------------------------------------------|
Bb||---------------------------------------------------------------|
Eb||---------------------------------------------------------------|


F ||--10----10---------------------------------|
C ||-----10----10\6---6~----6/8/10~------6-----|
Ab||----------------7------------------7---7~--|
Eb||-------------------------------------------|
Bb||-------------------------------------------|
Eb||-------------------------------------------|


F ||--------------------------------------|
C ||---------15-------15------------------|
Ab||--/14~------14~------14\10~---10\9\7--|
Eb||--------------------------------------|
Bb||--------------------------------------|
Eb||--------------------------------------|


F ||-----------------------------13/15--|--------------------------------------|
C ||---------15-------15---------13/15--|---------15-------15------------------|
Ab||--/14~------14~------14\10~---------|--/14~------14~------14\10~---10\9\7--|
Eb||------------------------------------|--------------------------------------| x2
Bb||------------------------------------|--------------------------------------|
Eb||------------------------------------|--------------------------------------|


Guitar 2:
F ||-----------------------------------------------|
C ||-----------------------------------------------|
Ab||--/7~---7--7--------------/7~---77-7-----------|
Eb||--/7~---7--7--5--5--5--x--/7~---77-7--3--3--0--| x5
Bb||--/5~---5--5--5--5--5--x--/5~---55-5--3--3--0--|
Eb||--------------5--5--5--x--------------3--3--0--|



Bridge
Guitar 1:
F ||-------------------------------------|
C ||-------------------------------------|
Ab||-----------7------------------7------|
Eb||--5--5--5--7--7~-----5--5--5--7--7~--| x2
Bb||--5--5--5-----5~-----5--5--5-----5~--|
Eb||-------------------------------------|


F ||-------------------------------------------------------------------|
C ||-------------------------------------------------------------------|
Ab||-------------------------------------------------------------------|
Eb||-------------------------------------------------------------------|
Bb||--5-5-5-5-5-5-5-5-3-3-3-3-3-3-3-3----------------------------------|
Eb||----------------------------------5-5-5-5-5-5-5-5-7-7-7-7-7-7-7-7--|


F ||-------------------------------------------------------------------|
C ||-------------------------------------------------------------------|
Ab||-------------------------------------------------------------------|
Eb||-------------------------------------------------------------------|
Bb||--5-5-5-5-5-5-5-5-3-3-3-3-3-3-3-3----------------------------------|
Eb||----------------------------------8-8-8-8-8-8-8-8-7-7-7-7-7-7-7-7--|


F ||------|
C ||------|
Ab||------|
Eb||--7~--|
Bb||--7~--|
Eb||--7~--|



Outro
Guitar 1:
F ||-----------------------------13/15--|--------------------------------------|
C ||---------15-------15---------13/15--|---------15-------15------------------|
Ab||--/14~------14~------14\10~---------|--/14~------14~------14\10~---10\9\7--|
Eb||------------------------------------|--------------------------------------| x2
Bb||------------------------------------|--------------------------------------|
Eb||------------------------------------|--------------------------------------|


F ||------------------------------------|--------------------------------------|
C ||---------15-------15----------------|---------15-------15------------------|
Ab||--/14~------14~------14\10~--10-10--|--/14~------14~------14\10~---10\9\7--|
Eb||------------------------------------|--------------------------------------|
Bb||------------------------------------|--------------------------------------|
Eb||------------------------------------|--------------------------------------|


Guitar 2:
F ||-----------------------------------------------|
C ||-----------------------------------------------|
Ab||--/7~---7--7--------------/7~---77-7-----------|
Eb||--/7~---7--7--5--5--5--x--/7~---77-7--3--3--0--| x3
Bb||--/5~---5--5--5--5--5--x--/5~---55-5--3--3--0--|
Eb||--------------5--5--5--x--------------3--3--0--|




Tablature Legend
----------------
 h   hammer-on
 p   pull-off
 b   bend
 pb  pre-bend
 r   release bend
 ~   hold / vibrato
 .   palm mute
 /   slide up
 \   slide down
 *   pinch harmonic
 '   natural harmonic
 x   mute note
 T   tap
Tap to rate this tab
# A B C D E F G H I J K L M N O P Q R S T U V W X Y Z