Song name
# A B C D E F G H I J K L M N O P Q R S T U V W X Y Z

Kontrust - Phonosapiens tab

-kontrust- -phono sapiens-

intro (dist)
 C|12-\-00-00-00-0--|12-\-00-00-00-0--|12-\-00-00-00-0--|12-\-00-00-00-0--|
 G|12-\-00-00-00-0--|12-\-00-00-00-0--|12-\-00-00-00-0--|12-\-00-00-00-0--|
 C|-----------------|-----------------|-----------------|-----------------|
 F|-----------------|-----------------|-----------------|-----------------|
 A|-----------------|-----------------|-----------------|-----------------|
 D|-----------------|-----------------|-----------------|-----------------|

       1's
 C|0-0-11-10-0------|0-0-11-10-0------|
 G|0-0-11-10-0------|0-0-11-10-0------|
 C|-----------------|-----------------|
 F|-----------------|-----------------|
 A|-----------------|-----------------|
 D|-----------------|-----------------|


 C|0-0-11-10-0------|0-0-11-10-0------|0-0-11-10-0------|0-0-11-10-0------|
 G|0-0-11-10-0------|0-0-11-10-0------|0-0-11-10-0------|0-0-11-10-0------|
 C|-----------------|-----------------|-----------------|-----------------|
 F|-----------------|-----------------|-----------------|-----------------|
 A|-----------------|-----------------|-----------------|-----------------|
 D|-----------------|-----------------|-----------------|-----------------|

 C|0-0-11-10-0------|0-0-11-10-0------|0-0-11-10-0------|0-0-11-10-0------|
 G|0-0-11-10-0--5-4-|0-0-11-10-0--5-4-|0-0-11-10-0--5-4-|0-0-11-10-0--5-4-|
 C|-----------------|-----------------|-----------------|-----------------|
 F|-----------------|-----------------|-----------------|-----------------|
 A|-----------------|-----------------|-----------------|-----------------|
 D|-----------------|-----------------|-----------------|-----------------|

 verse (clean)
 C|-----------------|-----------------|-----------------|-----------------|
 G|7--7-------------|7--7-------------|7--7-------------|7----------------|
 C|------6-6-6-996--|------6-6-6-996--|------6-6-6-996--|---6------6---6--|
 F|-----------------|-----------------|-----------------|------9-----99---|
 A|-----------------|-----------------|-----------------|-----------------|
 D|-----------------|-----------------|-----------------|-----------------|x2

 chorus (dist)
 C|0-0-11-10-0------|0-0-11-10-0------|0-0-11-10-0------|0-0-11-10-0------|
 G|0-0-11-10-0------|0-0-11-10-0------|0-0-11-10-0------|0-0-11-10-0------|
 C|-----------------|-----------------|-----------------|-----------------|
 F|-----------------|-----------------|-----------------|-----------------|
 A|-----------------|-----------------|-----------------|-----------------|
 D|-----------------|-----------------|-----------------|-----------------|

 C|0-0-11-10-0------|0-0-11-10-0------|0-0-11-10-0------|0-0-11-10-0------|
 G|0-0-11-10-0--5-4-|0-0-11-10-0--5-4-|0-0-11-10-0--5-4-|0-0-11-10-0--5-4-|
 C|-----------------|-----------------|-----------------|-----------------|
 F|-----------------|-----------------|-----------------|-----------------|
 A|-----------------|-----------------|-----------------|-----------------|
 D|-----------------|-----------------|-----------------|-----------------|

 verse (clean)
 C|-----------------|-----------------|-----------------|-----------------|
 G|7--7-------------|7--7-------------|7--7-------------|7----------------|
 C|------6-6-6-996--|------6-6-6-996--|------6-6-6-996--|---6------6---6--|
 F|-----------------|-----------------|-----------------|------9-----99---|
 A|-----------------|-----------------|-----------------|-----------------|
 D|-----------------|-----------------|-----------------|-----------------|x2


 chorus (dist)
 C|0-0-11-10-0------|0-0-11-10-0------|0-0-11-10-0------|0-0-11-10-0------|
 G|0-0-11-10-0------|0-0-11-10-0------|0-0-11-10-0------|0-0-11-10-0------|
 C|-----------------|-----------------|-----------------|-----------------|
 F|-----------------|-----------------|-----------------|-----------------|
 A|-----------------|-----------------|-----------------|-----------------|
 D|-----------------|-----------------|-----------------|-----------------|

 C|0-0-11-10-0------|0-0-11-10-0------|0-0-11-10-0------|0-0-11-10-0------|
 G|0-0-11-10-0--5-4-|0-0-11-10-0--5-4-|0-0-11-10-0--5-4-|0-0-11-10-0--5-4-|
 C|-----------------|-----------------|-----------------|-----------------|
 F|-----------------|-----------------|-----------------|-----------------|
 A|-----------------|-----------------|-----------------|-----------------|
 D|-----------------|-----------------|-----------------|-----------------|

 bridge (dist)
 C|-----------------|-----------------|-----------------|-----------------|
 G|4-4445555444-444-|4-4445555444-444-|-----------------|-----------------|
 C|-----------------|-----------------|2-2223333222-222-|2-2223333222-222-|
 F|-----------------|-----------------|-----------------|-----------------|
 A|-----------------|-----------------|-----------------|-----------------|
 D|-----------------|-----------------|-----------------|-----------------|x2
                                                                                2nd time add
 C|-----------------|-----------------|-----------------|-----------------|   |-----------------|
 G|4-4445555444-444-|4-4445555444-444-|4-4445555444-444-|2-2-2-0-0--------|   |2-2-2-0-0--------|
 C|6-6667777666-666-|6-6667777666-666-|6-6667777666-666-|2-2-2-0-0--------|   |2-2-2-0-0--------|
 F|-----------------|-----------------|-----------------|-----------------|   |-----------------|
 A|-----------------|-----------------|-----------------|-----------------|   |-----------------|
 D|-----------------|-----------------|-----------------|-----------------|x2 |-----------------|

 chorus (dist)
 C|0-0-11-10-0------|0-0-11-10-0------|0-0-11-10-0------|0-0-11-10-0------|
 G|0-0-11-10-0------|0-0-11-10-0------|0-0-11-10-0------|0-0-11-10-0------|
 C|-----------------|-----------------|-----------------|-----------------|
 F|-----------------|-----------------|-----------------|-----------------|
 A|-----------------|-----------------|-----------------|-----------------|
 D|-----------------|-----------------|-----------------|-----------------|

 C|0-0-11-10-0------|0-0-11-10-0------|0-0-11-10-0------|0-0-11-10-0------|
 G|0-0-11-10-0--5-4-|0-0-11-10-0--5-4-|0-0-11-10-0--5-4-|0-0-11-10-0--5-4-|
 C|-----------------|-----------------|-----------------|-----------------|
 F|-----------------|-----------------|-----------------|-----------------|
 A|-----------------|-----------------|-----------------|-----------------|
 D|-----------------|-----------------|-----------------|-----------------|

 outro (clean)                                                  1st time        2nd time
 C|-----------------|-----------------|-----------------|-----------------|   |----------------|
 G|7--7-------------|7--7-------------|7--7-------------|7----------------|   |7---------------|
 C|------6-6-6-996--|------6-6-6-996--|------6-6-6-996--|---6------6---6--|   |---6------------|
 F|-----------------|-----------------|-----------------|------9-----99---|   |------9---------|
 A|-----------------|-----------------|-----------------|-----------------|   |----------------|
 D|-----------------|-----------------|-----------------|-----------------|x2 |----------------|
Tap to rate this tab
 
# A B C D E F G H I J K L M N O P Q R S T U V W X Y Z