Song name
# A B C D E F G H I J K L M N O P Q R S T U V W X Y Z

Koop - Strange Love tab

Highlighted       Show chord diagrams
Capo 3

The notes match the words, not the rhythm. Listen to the song to get the rhythm.


[--2------3-----2-3----3-----2---5---3---2--3----2-----------]
[--0------0-----0-0----0-----0---0---0---0--0----------------]
[--0------0-----0-0----0-----0---0---0---0--0----------------]
[---------0--------------------------------------2---------2-]
[------------------------------------------------2---------2-]
[------------------------------------------------------------]

"Strange--love--even though you hurt me, I feel blessed, love"

Em                          C       D
Baby I'm your puppet on a string

            G          Em
Making me tumble and swing

C                    D
Trouble's what you bring

         Em
Strange love
         
Strange love


[--2------3-----2----3-3-----2---5--3---2--3----2-----]
[--0------0-----0----0-0-----0---0--0---0--0----------]
[--0------0-----0----0-0-----0---0--0---0--0----------]
[---------0-------------------------------------2---2-]
[-----------------------------------------------2---2-]
[-----------------------------------------------------]
"Strange how-- you control  my  every  little move now"

Em                                   C       D
Hanging from your strings is all I know

              G          Em
Starring in your puppet show

C            D
Never let me go

         Em
Strange love


(Instrumental)


Am7      D                      Em
All the things you've said and done

Am7         D               Em
There's no space for me to run

C          D                 E
Baby I've lost and you have won

D       G             D
cause' all I really want is--



[--2------3-----2-3----3-----2---5---3---2--3----2-----------]
[--0------0-----0-0----0-----0---0---0---0--0----------------]
[--0------0-----0-0----0-----0---0---0---0--0----------------]
[---------0--------------------------------------2---------2-]
[------------------------------------------------2---------2-]
[------------------------------------------------------------]

"Strange--love--even though you hurt me, I feel blessed, love"


Em                          C       D
Baby I'm your puppet on a string

            G          Em
Making me tumble and swing

C                    D
Trouble's what you bring

         Em
Strange love
         
Strange love

Strange love
Tap to rate this tab
 
# A B C D E F G H I J K L M N O P Q R S T U V W X Y Z