Song name
# A B C D E F G H I J K L M N O P Q R S T U V W X Y Z

Korn - One More Time tab

Band- Korn
Song- One More Time
Album- Untouchables

INTRO
Riff 1 Clean

D||-----------------------------------------------------------||
A||-----------------------------------------------------------||
F||-----------------------------------------------------------|| 1st part
C||-0-0-0-0-0-0-----19-18-18----13----------------------------|| Digitech 
G||-----------------------------------------------------------|| Whammy pedal
D||-----------------------------------------------------------||
A||-----------------------------------------------------------||

Slide the notes if you dont have the pedal

                  
Riff 2 Distorted

D||-----------------------------------------------------------||
A||-----------------------------------------------------------||
F||-----------------------------------------------------------|| 2nd Part
C||--------3-------------3-------------3-------------3--------|| 
G||-----------------------------------------------------------||
D||--5-5-5---5-5---5-5-5---5-5---5-5-5---5-5---5-5-5---5-5----||
A||--3-3-3---3-3---3-3-3---3-3---3-3-3---3-3---3-3-3---3-3----||
              


Pre Chorus

D||-----------------------------------------------------------||
A||-----------------------------------------------------------||
F||-----------------------------------------------------------||
C||--------3-------------3-------------3-------------3--------|| 
G||-----------------------------------------------------------||
D||--5-5-5---5-5---5-5-5---5-5---5-5-5---5-5---5-5-5---5-5----||
A||--3-3-3---3-3---3-3-3---3-3---3-3-3---3-3---3-3-3---3-3----||
         


Chorus

D||-----------------------------------------------------------||
A||-----------------------------------------------------------|| 
F||-----------------------------------------------------------||
C||---------------------5-5-5-5-5-4-4-4-----------------------||
G||--5-5-5-5-5-3-3-3----5-5-5-5-5-4-4-4-----------------------||
D||--5-5-5-5-5-3-3-3----3-3-3-3-3-2-2-2-----------------------||
A||--3-3-3-3-3-1-1-1------------------------------------------||




D||-----------------------------------------------------------||
A||-----------------------------------------------------------|| 
F||-----------------------------------------------------------||
C||---------------------5-5-5-5-5-6-6-6-----------------------||
G||--5-5-5-5-5-3-3-3----5-5-5-5-5-6-6-6-----------------------||
D||--5-5-5-5-5-3-3-3----3-3-3-3-3-4-4-4-----------------------||
A||--3-3-3-3-3-1-1-1------------------------------------------||
Tap to rate this tab
 
# A B C D E F G H I J K L M N O P Q R S T U V W X Y Z