Guitaretab - guitar tabs
Song name
# A B C D E F G H I J K L M N O P Q R S T U V W X Y Z

Korn - Falling Away From Me Acoustic tab

KoRn - Falling Away From Me - MTV Unplugged

Tabbed by Changui
Tuning : Standard (E A D G B e)

Vocal: Jonathan Houseman Davis 'Hiv'
Guitar: James Randal Shaffer 'Munky'
Bass: Reginald Arvizu 'Fieldy'

Munky uses a 6 string guitar Tuned Low to High (D G C F a d) in this song...

This is basically the adapted version on standard Tuning of Elvisz' (elvisz84@yahoo.com) Tab
plus arrangement for the guitar of the Xilophone and the Piano

Verse:

Xilophon:
e|-10-13-12-------12---10-13-12-------12---|-10-13-12-------12---10-13-12-------12----|
B|----------13-10---------------13-10----12|----------13-10---------------13-10----12-|
G|-----------------------------------------|------------------------------------------|
D|-----------------------------------------|------------------------------------------|
A|-----------------------------------------|------------------------------------------|
E|-----------------------------------------|------------------------------------------|

Piano:
e|-----------------------------------------|------------------------------------------|
B|-----------------------------------------|------------------------------------------|
G|--7-10-9------9-------7-10-9------9------|--7-10-9------9-------7-10-9------9-------|
D|---------10-7----------------10-7---9----|---------10-7----------------10-7---9-----|
A|-----------------------------------------|------------------------------------------|
E|-----------------------------------------|------------------------------------------|

Guitar:
e|-----------------------------------------|------------------------------------------|
B|---6----6----5----5----1----1----1----1--|---6----6----5----5----1----1----2----2---|
G|-7----7----5----5----2----2----2----2----|-7----7----5----5----2----2----4----4-----|
D|-----------------------------------------|------------------------------------------|
A|-----------------------------------------|------------------------------------------|
E|-----------------------------------------|------------------------------------------|

Chorus:
e|------------------------------------------------------------------------|
B|------------------------------------------------------------------------|
G|------------------------------------------------------------------------|
D|-7-77-7-77\6-66-6-66\5-55-5-55-5-55-5\4---3-33-3-33-2-22-2-22-7-77-7-77-|
A|-7-77-7-77\6-66-6-66\5-55-5-55-5-55-5\4---3-33-3-33-2-22-2-22-7-77-7-77-|
E|-5-55-5-55\4-44-4-44\3-33-3-33-3-33-3\2~--1-11-1-11-0-00-0-00-5-55-5-55-|
[ Tab from: http://www.guitaretab.com/k/korn/72316.html ]
Verse:
e|-----------------------------------------|------------------------------------------|
B|---6----6----5----5----1----1----1----1--|---6----6----5----5----1----1----2----2---|
G|-7----7----5----5----2----2----2----2----|-7----7----5----5----2----2----4----4-----|
D|-----------------------------------------|------------------------------------------|
A|-----------------------------------------|------------------------------------------|
E|-----------------------------------------|------------------------------------------|

Chorus:
e|------------------------------------------------------------------------|
B|------------------------------------------------------------------------|
G|------------------------------------------------------------------------|
D|-7-77-7-77\6-66-6-66\5-55-5-55-5-55-5\4---3-33-3-33-2-22-2-22-7-77-7-77-|
A|-7-77-7-77\6-66-6-66\5-55-5-55-5-55-5\4---3-33-3-33-2-22-2-22-7-77-7-77-|
E|-5-55-5-55\4-44-4-44\3-33-3-33-3-33-3\2~--1-11-1-11-0-00-0-00-5-55-5-55-|

Bridge1:(this part was corrected by luis_baroni@hotmail.com, so i would like to thank 
here for his correction)
e|-5--5---5---5---5---5---5---5---5---5----|
B|-----------------------------------------|
G|--2---2---2---2---2---2---2---2---2---2--|	(Guitar2)
D|-----------------------------------------|
A|-----------------------------------------|
E|-----------------------------------------|

e|---------------------------------------------------------------------------------------------|
B|---------------------------------------------------------------------------------------------|
G|---------------------------------------------------------------------------------------------|
D|------------------------------------------------12--------12---------------10-------10-------|
A|---3----3----5----5----7----7----7----7------12--------12--------12-----10-------10-------10-|
E|-5----5----7----7----8----8----8----8-----10--------10--------10------8--------8--------8----|

Bridge2:
e|-----------------|
B|-----------------|
G|--8----8----8----|
D|--7----7----7----|
A|--6----6----6----|
E|----5----5----55-|

Chorus:
e|------------------------------------------------------------------------|
B|------------------------------------------------------------------------|
G|------------------------------------------------------------------------|
D|-7-77-7-77\6-66-6-66\5-55-5-55-5-55-5\4---3-33-3-33-2-22-2-22-7-77-7-77-|
A|-7-77-7-77\6-66-6-66\5-55-5-55-5-55-5\4---3-33-3-33-2-22-2-22-7-77-7-77-|
E|-5-55-5-55\4-44-4-44\3-33-3-33-3-33-3\2~--1-11-1-11-0-00-0-00-5-55-5-55-|
Related for Falling Away From Me Acoustic tab
×
Best way to learn
"Falling Away From Me Acoustic"