Song name
# A B C D E F G H I J K L M N O P Q R S T U V W X Y Z

Korn - Good God tab

Gtr I (A D G C F A D) - 'Munky (Right)'
Gtr II (A D G C F A D) - 'Head (Left)'


 Intro
  Moderately Q=126
  N.C.
 4/4
  Gtrs I, II
  W            E E  E S S E  E E E  3x
|----------||------20-------20------||
|----------||-----------------------||
|----------||o---------------------o||
|----------||-----------------------||
|----------||o---------------------o||
|----------||-----------------------||
|----------||--1-0----0-0------1-0--||


  E E  E S S E  E E E     E E  E S S E  E E E    4x
|-----19-------20-----||------20-------20--------||
|---------------------||-------------------------||
|---------------------||o-----------------------o||
|---------------------||-------------------------||
|---------------------||o-----------------------o||
|---------------------||-------------------------||
|-1-0----0-0------1-0-||--1-0----0-0------1-0----||


    C5B5               C5B5
    E E E  Q    Q.     E E E  Q    Q.
||-------------------|------------------|
||-------------<7>---|-------<7>--------|
||o-------<5>--------|------------<7>---|
||-------------------|------------------|
||o------------------|------------------|
||--3-2--------------|-3-2--------------|
||--1-0--------------|-1-0--------------|


  C5B5               C5B5
  E E E  Q    Q.     E E E  Q    E   Q
|------------------|----------------------||
|------------<7>---|-------<7>------------||
|-------<5>--------|------------<7>-------||
|------------------|----------------<7>---||
|------------------|----------------------||
|-3-2--------------|-3-2------------------||
|-1-0--------------|-1-0------------------||


 Verses 1 & 2
  C5B5               C5B5               C5B5               C5B5
  E E E  Q    Q.     E E E  Q    Q.     E E E  Q    Q.     E E E  Q    E   Q
|------------------|------------------|------------------|---------------------|
|------------<7>---|-------<7>--------|------------<7>---|-------<7>-----------|
|-------<5>--------|------------<7>---|-------<5>--------|------------<7>------|
|------------------|------------------|------------------|----------------<7>--|
|------------------|------------------|------------------|---------------------|
|-3-2--------------|-3-2--------------|-3-2--------------|-3-2-----------------|
|-1-0--------------|-1-0--------------|-1-0--------------|-1-0-----------------|


  C5B5               C5B5
  E E E  Q    Q.     E E E  Q    Q.
|------------------|------------------|
|------------<7>---|-------<7>--------|
|-------<5>--------|------------<7>---|
|------------------|------------------|
|------------------|------------------|
|-3-2--------------|-3-2--------------|
|-1-0--------------|-1-0--------------|


  C5B5               C5B5
  E E E  Q    Q.     E E E  Q    E   Q
|------------------|---------------------||
|------------<7>---|-------<7>-----------||
|-------<5>--------|------------<7>------||
|------------------|----------------<7>--||
|------------------|---------------------||
|-3-2--------------|-3-2-----------------||
|-1-0--------------|-1-0-----------------||


 Pre-Chorus
  N.C.
  E E  E S S E  E E E   E E  E S S E  E E E
|-----20-------20-----|-----20-------20-----|
|---------------------|---------------------|
|---------------------|---------------------|
|---------------------|---------------------|
|---------------------|---------------------|
|---------------------|---------------------|
|-1-0----0-0------1-0-|-1-0----0-0------1-0-|


  E E  E S S E  E E E   E E  E S S E  E E E
|-----20-------20-----|-----20-------20-----||
|---------------------|---------------------||
|---------------------|---------------------||
|---------------------|---------------------||
|---------------------|---------------------||
|---------------------|---------------------||
|-1-0----0-0------1-0-|-1-0----0-0------1-0-||


 Chorus
  $
  Gtr I
   Q.                 E    +H
|---------------------------------------------------|
|---------------------------------------------------|
|---------------------------------------------------|
|---------------------------------------------------|
|---------------------------------------------------|
|--7------------------------------------------------|
|---------------------6----(6)----------------------|
|
| Gtr II
|  S   S  S  S  S  S  S  S  S   S  S  S  S  S  S  S
|---------------------------------------------------|
|---------------------------------------------------|
|-16--16-16-16-16-16-16-16-16--16-16-16-16-16-16-16-|
|---------------------------------------------------|
|-14--14-14-14-14-14-14-14-14--14-14-14-14-14-14-14-|
|---------------------------------------------------|
|---------------------------------------------------|


                     A5                 G#5
   Q.                 Q.                 Q
|---------------------------------------------------|
|---------------------------------------------------|
|---------------------------------------------------|
|---------------------------------------------------|
|---------------------7------------------6----------|
|---------------------5------------------4----------|
|--4------------------------------------------------|
|
|  S   S  S  S  S  S  S   S  S  S  S  S  S  S  S  S
|---------------------------------------------------|
|---------------------------------------------------|
|-16--16-16-16-16-16-16--16-16-16-16-16-16-16-16-16-|
|---------------------------------------------------|
|-14--14-14-14-14-14-14--14-14-14-14-14-14-14-14-14-|
|---------------------------------------------------|
|---------------------------------------------------|


   Q.                 E    +H
|---------------------------------------------------|
|---------------------------------------------------|
|---------------------------------------------------|
|---------------------------------------------------|
|---------------------------------------------------|
|--7------------------------------------------------|
|---------------------6----(6)----------------------|
|
|  S   S  S  S  S  S  S  S  S   S  S  S  S  S  S  S
|---------------------------------------------------|
|---------------------------------------------------|
|-16--16-16-16-16-16-16-16-16--16-16-16-16-16-16-16-|
|---------------------------------------------------|
|-14--14-14-14-14-14-14-14-14--14-14-14-14-14-14-14-|
|---------------------------------------------------|
|---------------------------------------------------|


                     A5                 G#5
   Q.                 Q.                 Q
|---------------------------------------------------|
|---------------------------------------------------|
|---------------------------------------------------|
|---------------------------------------------------|
|---------------------7------------------6----------|
|---------------------5------------------4----------|
|--4------------------------------------------------|
|
|  S   S  S  S  S  S  S   S  S  S  S  S  S  S  S  S
|---------------------------------------------------|
|---------------------------------------------------|
|-16--16-16-16-16-16-16--16-16-16-16-16-16-16-16-16-|
|---------------------------------------------------|
|-14--14-14-14-14-14-14--14-14-14-14-14-14-14-14-14-|
|---------------------------------------------------|
|---------------------------------------------------|


   Q.                 E    +H
|---------------------------------------------------|
|---------------------------------------------------|
|---------------------------------------------------|
|---------------------------------------------------|
|---------------------------------------------------|
|--7------------------------------------------------|
|---------------------6----(6)----------------------|
|
|  S   S  S  S  S  S  S  S  S   S  S  S  S  S  S  S
|---------------------------------------------------|
|---------------------------------------------------|
|-16--16-16-16-16-16-16-16-16--16-16-16-16-16-16-16-|
|---------------------------------------------------|
|-14--14-14-14-14-14-14-14-14--14-14-14-14-14-14-14-|
|---------------------------------------------------|
|---------------------------------------------------|


                     A5                 G#5
   Q.                 Q.                 Q
|---------------------------------------------------|
|---------------------------------------------------|
|---------------------------------------------------|
|---------------------------------------------------|
|---------------------7------------------6----------|
|---------------------5------------------4----------|
|--4------------------------------------------------|
|
|  S   S  S  S  S  S  S   S  S  S  S  S  S  S  S  S
|---------------------------------------------------|
|---------------------------------------------------|
|-16--16-16-16-16-16-16--16-16-16-16-16-16-16-16-16-|
|---------------------------------------------------|
|-14--14-14-14-14-14-14--14-14-14-14-14-14-14-14-14-|
|---------------------------------------------------|
|---------------------------------------------------|


                                                               To Coda
                                          A5                 G#5
   Q.                 E  +H          Q.    Q.                 Q
|---------------------------------|---------------------------------------||
|---------------------------------|---------------------------------------||
|---------------------------------|--------------------------------------o||
|---------------------------------|---------------------------------------||
|---------------------------------|--------7------------------6----------o||
|--7------------------------------|--------5------------------4-----------||
|---------------------6--(6)------|--4------------------------------------||
|
|  S   S  S  S  S  S  Q.       Q     Q.    S   S  S  S  S  S  S  S  S  S
|---------------------------------|---------------------------------------||
|---------------------------------|-------17--17-17-17-17-17-17-17-17-17--||
|-16--16-16-16-16-16-14-------16--|-19-----------------------------------o||
|---------------------------------|-------14--14-14-14-14-14-14-14-14-14--||
|-14--14-14-14-14-14-12-------14--|-17-----------------------------------o||
|---------------------------------|---------------------------------------||
|---------------------------------|---------------------------------------||


 Bridge
  B5    F5         Eb5  D5 C#5C5    B5   F5         Eb5  D5 C#5C5
  Gtrs I, II
  E E E E +H       Q.   Q  Q  E     Q.   E +H       Q.   Q  Q  E  3x
|----------------|--------------||----------------|---------------||
|----------------|--------------||----------------|---------------||
|----------------|--------------||o---------------|--------------o||
|----------------|--------------||----------------|---------------||
|----------------|--------------||o---------------|--------------o||
|-2-5-2-8-(8)----|-6----5--4--3-||--2----8-(8)----|-6----5--4--3--||
|-0---0-6-(6)----|-4----3--2--1-||--0----6-(6)----|-4----3--2--1--||


                                            D.S. al Coda
  N.C.            C5B5          C5B5  C5B5          C5B5
  Wx12            E E E E S S E E E   E E E E S S E E E   4x
|-------------||--------------------|---------------------||
|-------------||--------------------|---------------------||
|-------------||o-------------------|--------------------o||
|-------------||--------------------|---------------------||
|-------------||o-------------------|--------------------o||
|-------------||--3-2---2---2-2-3-2-|-3-2---2---2-2-3-2---||
|-------------||--1-0---0---0-0-1-0-|-1-0---0---0-0-1-0---||


  &
  B5    F5         Eb5  D5 C#5C5    B5   F5
  E E E E +H       Q.   Q  Q  E     Q.   E +H
|----------------|--------------||----------------|
|----------------|--------------||----------------|
|----------------|--------------||o---------------|
|----------------|--------------||----------------|
|----------------|--------------||o---------------|
|-2-5-2-8-(8)----|-6----5--4--3-||--2----8-(8)----|
|-0---0-6-(6)----|-4----3--2--1-||--0----6-(6)----|


  Eb5  D5 C#5C5    B5   F5         Eb5
                                   PM
  Q.   Q  Q  E     Q.   E +H       W
|---------------||---------------|------*|
|---------------||---------------|------*|
|--------------o||---------------|------*|
|---------------||---------------|------*|
|--------------o||---------------|------*|
|-6----5--4--3--||-2----8-(8)----|-6----*|
|-4----3--2--1--||-0----6-(6)----|-4----*|




--------------------------------------------------------------------------------


Duration Legend
---------------
W - whole; H - half; Q - quarter; E - 8th; S - 16th; T - 32nd; X - 64th; a - acciaccatura
+ - note tied to previous; . - note dotted; .. - note double dotted
Uncapitalized letters represent notes that are staccato (1/2 duration)
Irregular groupings are notated above the duration line
Duration letters will always appear directly above the note/fret number it represents the
duration for.  Duration letters with no fret number below them represent rests.  Multi-
bar rests are notated in the form Wxn, where n is the number of bars to rest for.  Low
melody durations appear below the staff

Tablature Legend
----------------
 h   - hammer-on
 p   - pull-off
 b   - bend
 pb  - pre-bend
 r   - bend release (if no number after the r, then release immediately)
 /\  - slide into or out of (from/to "nowhere")
 s   - legato slide
 S   - shift slide
 - natural harmonic
[n]  - artificial harmonic
n(n) - tapped harmonic
 ~   - vibrato
 tr  - trill
 T   - tap
 TP  - trem. picking
 PM  - palm muting
\n/  - tremolo bar dip; n = amount to dip
 \n  - tremolo bar down
 n/  - tremolo bar up
/n\  - tremolo bar inverted dip
 =   - hold bend; also acts as connecting device for hammers/pulls
 <> - volume swell (louder/softer)
 x   - on rhythm slash represents muted slash
 o   - on rhythm slash represents single note slash

Misc Legend
-----------
 |  - bar
||  - double bar
||o - repeat start
o|| - repeat end
*|  - double bar (ending)
 :  - bar (freetime)
 $  - Segno
 &  - Coda
Tempo markers -  = BPM(8/16=s8/s16), where s8 = swing 8ths, s16 = swing 16ths


Tap to rate this tab
 
# A B C D E F G H I J K L M N O P Q R S T U V W X Y Z