Song name
# A B C D E F G H I J K L M N O P Q R S T U V W X Y Z

Korn - Counting On Me tab

Gtr I (A D G C F A D) - 'Head'
Gtr II (A D G C F A D) - 'Munky'


   Intro
    Moderately Slow Rock Q=78
   4/4
    Gtr I
    S S S S S S S S S S S S E   E  3x S S S S S S S S S S S S Q
||---------------------------------||----------------------------|
||---------------------------------||----------------------------|
||o-------------------------------o||----------------------------|
||---------------------------------||----------------------------|
||o-------------------------------o||----------------------------|
||--1-x-x-1-x-x-1-x-x-1-x-xS3b4----||-1-x-x-1-x-x-1-x-x-1-x-x----|
||---------------------------------||----------------------------|


    Bb5                     C5       Bb5                     C5
    Gtr I
    S S S S S S S S S S S S  E   E   S S S S S S S S S S S S  E   E
||---------------------------------|----------------------------------||
||---------------------------------|----------------------------------||
||o--------------------------------|---------------------------------o||
||--3-----3-----3-----3-----/5b6---|-3-----3-----3-----3-----/5b6-----||
||o-3-----3-----3-----3-----/5b6---|-3-----3-----3-----3-----/5b6----o||
||--1-x-x-1-x-x-1-x-x-1-x-x-/3b4---|-1-x-x-1-x-x-1-x-x-1-x-x-/3b4-----||
||---------------------------------|----------------------------------||
|
|   Gtr II
|   S S S S S S S S S S S S  E   E   S S S S S S S S S S S S  E   E
||---------------------------------|----------------------------------||
||---------------------------------|----------------------------------||
||o--------------------------------|---------------------------------o||
||--3-3-3-3-3-3-3-3-3-3-3-3-/5b6---|-3-3-3-3-3-3-3-3-3-3-3-3-/5b6-----||
||o--------------------------------|---------------------------------o||
||---------------------------------|----------------------------------||
||---------------------------------|----------------------------------||


   Verses
    Gtr I
     S S S S S S S S S S S S E   E    S S S S S S S S S S S S E   E
||---------------------------------|--------------------------------|
||---------------------------------|--------------------------------|
||o--------------------------------|--------------------------------|
||---------------------------------|--------------------------------|
||o--------------------------------|--------------------------------|
||---1-x-x-1-x-x-1-x-x-1-x-xS3b4---|--1-x-x-1-x-x-1-x-x-1-x-xS3b4---|
||---------------------------------|--------------------------------|
|
|   Gtr II
|    W                                W
||---------------------------------|--------------------------------|
||---------------------------------|--------------------------------|
||o--------------------------------|--------------------------------|
||--10-----------------------------|-10-----------------------------|
||o--------------------------------|--------------------------------|
||---------------------------------|--------------------------------|
||---------------------------------|--------------------------------|


  S S S S S S S S  S  S S S E   E    S  S S S S S S S S S S S E   E
|---------------------------------|------------------------------------|
|---------------------------------|------------------------------------|
|---------------------------------|------------------------------------|
|---------------------------------|------------------------------------|
|---------------------------------|------------------------------------|
|-1-x-x-1-x-x-1-x--x--1-x-xS3b4---|--1--x-x-1-x-x-1-x-x-1-x-xS3b4------|
|---------------------------------|------------------------------------|
|
| H               +E    Q       E   +W
|---------------------------------|------------------------------------|
|---------------------------------|------------------------------------|
|---------------------------------|------------------------------------|
|-7---------------(7)---5---------|------------------------------------|
|-------------------------------8-|-(8)--------------------------------|
|---------------------------------|------------------------------------|
|---------------------------------|------------------------------------|


   S S S S S S S S S S S S E   E    S S S S S S S S S S S S E   E
|--------------------------------|--------------------------------|
|--------------------------------|--------------------------------|
|--------------------------------|--------------------------------|
|--------------------------------|--------------------------------|
|--------------------------------|--------------------------------|
|--1-x-x-1-x-x-1-x-x-1-x-xS3b4---|--1-x-x-1-x-x-1-x-x-1-x-xS3b4---|
|--------------------------------|--------------------------------|
|
|  W                                W
|--------------------------------|--------------------------------|
|--------------------------------|--------------------------------|
|--------------------------------|--------------------------------|
|-10-----------------------------|-10-----------------------------|
|--------------------------------|--------------------------------|
|--------------------------------|--------------------------------|
|--------------------------------|--------------------------------|


  S S S S S S S S  S  S S S E   E    S  S S S S S S S S S S S E   E
|---------------------------------|------------------------------------|
|---------------------------------|------------------------------------|
|---------------------------------|------------------------------------|
|---------------------------------|------------------------------------|
|---------------------------------|------------------------------------|
|-1-x-x-1-x-x-1-x--x--1-x-xS3b4---|--1--x-x-1-x-x-1-x-x-1-x-xS3b4------|
|---------------------------------|------------------------------------|
|
| H               +E    Q       E   +W
|---------------------------------|------------------------------------|
|---------------------------------|------------------------------------|
|---------------------------------|------------------------------------|
|-7---------------(7)---5---------|------------------------------------|
|-------------------------------8-|-(8)--------------------------------|
|---------------------------------|------------------------------------|
|---------------------------------|------------------------------------|


   Pre-Chorus / Main Riff
    Bb5                     C5       Bb5                     C5
    Gtr I
    S S S S S S S S S S S S  E   E   S S S S S S S S S S S S  E   E
||---------------------------------|----------------------------------||
||---------------------------------|----------------------------------||
||o--------------------------------|---------------------------------o||
||--3-----3-----3-----3-----/5b6---|-3-----3-----3-----3-----/5b6-----||
||o-3-----3-----3-----3-----/5b6---|-3-----3-----3-----3-----/5b6----o||
||--1-x-x-1-x-x-1-x-x-1-x-x-/3b4---|-1-x-x-1-x-x-1-x-x-1-x-x-/3b4-----||
||---------------------------------|----------------------------------||
|
|   S S S S S S S S S S S S  E   E   S S S S S S S S S S S S  E   E
||---------------------------------|----------------------------------||
||---------------------------------|----------------------------------||
||o--------------------------------|---------------------------------o||
||--3-3-3-3-3-3-3-3-3-3-3-3-/5b6---|-3-3-3-3-3-3-3-3-3-3-3-3-/5b6-----||
||o--------------------------------|---------------------------------o||
||---------------------------------|----------------------------------||
||---------------------------------|----------------------------------||


 Chorus
  Bb5     F5/C F#5        Db5/Ab  Eb5/BAb5     B5
  Gtrs I, II
  H.      Q    W          H.      Q    H.      Q
|------------|----------|------------|-------------|
|------------|----------|------------|-------------|
|------------|----------|------------|-------------|
|-3-------5--|----------|------------|---------4---|
|-3-------3--|-4--------|-6-------8--|-6-------4---|
|-1-------3--|-4--------|-4-------6--|-6-------2---|
|------------|-2--------|-4-------6--|-4-----------|


  Bb5     F5/C F#5        Db5/Ab  Eb5/BAb5     B5
  H.      Q    W          H.      Q    H.      Q
|------------|----------|------------|--------------||
|------------|----------|------------|--------------||
|------------|----------|------------|-------------o||
|-3-------5--|----------|------------|---------4----||
|-3-------3--|-4--------|-6-------8--|-6-------4---o||
|-1-------3--|-4--------|-4-------6--|-6-------2----||
|------------|-2--------|-4-------6--|-4------------||


   Breakdown
                 F#                      F#
    Gtr I
    E E S E. E E  Q         E E S E. E E  Q
||------------------------|-----------------------|
||------------------------|-----------------------|
||o---2--------2----------|---2--------2----------|
||------3-----------------|-----3-----------------|
||o-----------------------|-----------------------|
||------------------------|-----------------------|
||--1-----1--1------------|-1-----1--1------------|
|
|   Gtr II
|   H        Q    S  S  E   H        Q    S  S  E
||------------------------|-----------------------|
||------------------------|-----------------------|
||o-----------------------|-----------------------|
||---------------11-11-11-|--------------11-11-11-|
||o-----------------------|-----------------------|
||----------------9--9--9-|---------------9--9--9-|
||------------------------|-----------------------|


               F#                      F#
  E E S E. E E  Q         E E S E. E E  Q
|-----------------------|------------------------||
|-----------------------|------------------------||
|---2--------2----------|---2--------2----------o||
|-----3-----------------|-----3------------------||
|-----------------------|-----------------------o||
|-----------------------|------------------------||
|-1-----1--1------------|-1-----1--1-------------||
|
| H        Q    S  S  E   H        Q    S  S  E
|-----------------------|------------------------||
|-----------------------|------------------------||
|-----------------------|-----------------------o||
|--------------11-11-11-|--------------11-11-11--||
|-----------------------|-----------------------o||
|---------------9--9--9-|---------------9--9--9--||
|-----------------------|------------------------||


   Heavy Riff Change
    C    C
    Gtrs I, II
                PM----|       PM------|
    H    H      S S S S S S S S S S S S S S E  3x
||------------|--------------------------------||
||------------|--------------------------------||
||o-----------|-------------------------------o||
||--6----5----|--------------------------------||
||o-5----4----|---------3---------------3-----o||
||--4----3----|--------------------------------||
||------------|-1-1-1-1---1---1-1-1-1-1---1----||


  C    C      F5
              PM----|       PM------|
  H    H      S S S S S S S S S S S S S S S S
|-----------|-----------------------------------|
|-----------|-----------------------------------|
|-----------|-----------------------------------|
|-6----5----|-----------------------------------|
|-5----4----|---------3---------------3---------|
|-4----3----|-3-3-3-3---3---3-3-3-3-3---3---3---|
|-----------|-1-1-1-1---1---1-1-1-1-1---1---1---|


    F5                                  C    C
    PM----|       PM------|
    S S S S S S S S S S S S S S S S  3x H    H
||-----------------------------------||-----------|
||-----------------------------------||-----------|
||o---------------------------------o||-----------|
||-----------------------------------||-6----5----|
||o---------3---------------3-------o||-5----4----|
||--3-3-3-3---3---3-3-3-3-3---3---3--||-4----3----|
||--1-1-1-1---1---1-1-1-1-1---1---1--||-----------|


   Main Riff
    Bb5                     C5       Bb5                     C5
    S S S S S S S S S S S S  E   E   S S S S S S S S S S S S  E   E
||---------------------------------|----------------------------------||
||---------------------------------|----------------------------------||
||o--------------------------------|---------------------------------o||
||--3-----3-----3-----3-----/5b6---|-3-----3-----3-----3-----/5b6-----||
||o-3-----3-----3-----3-----/5b6---|-3-----3-----3-----3-----/5b6----o||
||--1-x-x-1-x-x-1-x-x-1-x-x-/3b4---|-1-x-x-1-x-x-1-x-x-1-x-x-/3b4-----||
||---------------------------------|----------------------------------||
|
|   Gtr II
|   S S S S S S S S S S S S  E   E   S S S S S S S S S S S S  E   E
||---------------------------------|----------------------------------||
||---------------------------------|----------------------------------||
||o--------------------------------|---------------------------------o||
||--3-3-3-3-3-3-3-3-3-3-3-3-/5b6---|-3-3-3-3-3-3-3-3-3-3-3-3-/5b6-----||
||o--------------------------------|---------------------------------o||
||---------------------------------|----------------------------------||
||---------------------------------|----------------------------------||


   Out-Chorus
    Bb5     F5/C F#5        Db5/Ab  Eb5/BAb5     B5
    H.      Q    W          H.      Q    H.      Q   4x
||-------------|----------|------------|-------------||
||-------------|----------|------------|-------------||
||o------------|----------|------------|------------o||
||--3-------5--|----------|------------|---------4---||
||o-3-------3--|-4--------|-6-------8--|-6-------4--o||
||--1-------3--|-4--------|-4-------6--|-6-------2---||
||-------------|-2--------|-4-------6--|-4-----------||


  Bb5
  Gtr I
  Q  Q  Q  Q     E   E E  E E  E E E
|-------------|--------8----8--------|
|----9--8--8--|--9-----9----8----8---|
|-------------|-----10---10---10---8-|
|-------------|----------------------|
|-------------|----------------------|
|-------------|----------------------|
|-------------|----------------------|
|
| Gtr II
| W             +W
|-------------|----------------------|
|-------------|----------------------|
|-------------|----------------------|
|-3-----------|-(3)------------------|
|-3-----------|-(3)------------------|
|-1-----------|-(1)------------------|
|-------------|----------------------|


   E   E   E   E E  E E  E    E   E Q  +H
|--8------------------8----|--8-----8--(8)----|
|--9-------------8----9----|--9-----6--(6)----|
|-----10-[10]-10---10---10-|-----10-----------|
|--------------------------|------------------|
|--------------------------|------------------|
|--------------------------|------------------|
|--------------------------|------------------|
|
| +W                         +W
|--------------------------|------------------|
|--------------------------|------------------|
|--------------------------|------------------|
|-(3)----------------------|-(3)--------------|
|-(3)----------------------|-(3)--------------|
|-(1)----------------------|-(1)--------------|
|--------------------------|------------------|


   W            W            W            W
|------------|------------|------------|--------*|
|------------|------------|------------|--------*|
|------------|------------|------------|--------*|
|------------|------------|------------|--------*|
|------------|------------|------------|--------*|
|------------|------------|------------|--------*|
|------------|------------|------------|--------*|
|
|  >
| +W           +W           +W           +W
|------------|------------|------------|--------*|
|------------|------------|------------|--------*|
|------------|------------|------------|--------*|
|-(3)--------|-(3)--------|-(3)--------|-(3)----*|
|-(3)--------|-(3)--------|-(3)--------|-(3)----*|
|-(1)--------|-(1)--------|-(1)--------|-(1)----*|
|------------|------------|------------|--------*|




--------------------------------------------------------------------------------


Duration Legend
---------------
W - whole; H - half; Q - quarter; E - 8th; S - 16th; T - 32nd; X - 64th; a - acciaccatura
+ - note tied to previous; . - note dotted; .. - note double dotted
Uncapitalized letters represent notes that are staccato (1/2 duration)
Irregular groupings are notated above the duration line
Duration letters will always appear directly above the note/fret number it represents the
duration for.  Duration letters with no fret number below them represent rests.  Multi-
bar rests are notated in the form Wxn, where n is the number of bars to rest for.  Low
melody durations appear below the staff

Tablature Legend
----------------
 h   - hammer-on
 p   - pull-off
 b   - bend
 pb  - pre-bend
 r   - bend release (if no number after the r, then release immediately)
 /\  - slide into or out of (from/to "nowhere")
 s   - legato slide
 S   - shift slide
 - natural harmonic
[n]  - artificial harmonic
n(n) - tapped harmonic
 ~   - vibrato
 tr  - trill
 T   - tap
 TP  - trem. picking
 PM  - palm muting
\n/  - tremolo bar dip; n = amount to dip
 \n  - tremolo bar down
 n/  - tremolo bar up
/n\  - tremolo bar inverted dip
 =   - hold bend; also acts as connecting device for hammers/pulls
 <> - volume swell (louder/softer)
 x   - on rhythm slash represents muted slash
 o   - on rhythm slash represents single note slash

Misc Legend
-----------
 |  - bar
||  - double bar
||o - repeat start
o|| - repeat end
*|  - double bar (ending)
 :  - bar (freetime)
 $  - Segno
 &  - Coda
Tempo markers -  = BPM(8/16=s8/s16), where s8 = swing 8ths, s16 = swing 16ths

Tap to rate this tab
 
# A B C D E F G H I J K L M N O P Q R S T U V W X Y Z