Song name
# A B C D E F G H I J K L M N O P Q R S T U V W X Y Z

Korn - Coming Undone tab

#----------------------------------PLEASE NOTE---------------------------------#
#This file is the author's own work and represents their interpretation of the #
#song. You may only use this file for private study, scholarship, or research. #
#------------------------------------------------------------------------------##

                                  COMING UNDONE
                               As recorded by Korn
                 (From the 2006 Album SEE YOU ON THE OTHER SIDE)

Words and Music by Korn
Transcribed by Brizzal06

Gtr I (A D G C F A D) - 'Munky'
Gtr II (A D G C F A D) - 'Head'

 Intro
  Q=156
 4/4
  Gtrs I, II
  E E E E E E E E   E E E E E E E E   E E E E E E E E   E E E E E E E E
|-----------------|-----------------|-----------------|------------------|
|-----------------|-----------------|-----------------|------------------|
|-----------------|-----------------|-----------------|------------------|
|-----------------|-----------------|-----------------|------------------|
|-----------------|-----------------|-----------------|------------------|
|-----------------|-----------------|-----------------|------------------|
|-5-5-5---5---5-5-|-5---5---5-5-5---|-5---5-5-5---5---|-5-5-5---5---5-5--|


   Verse
    E E E E E E E E   E E E E E E E E   E E E E E E E E   E E E E E E E E   4x
||------------------|-----------------|-----------------|-------------------||
||------------------|-----------------|-----------------|-------------------||
||o-----------------|-----------------|-----------------|------------------o||
||------------------|-----------------|-----------------|-------------------||
||o-----------------|-----------------|-----------------|------------------o||
||------------------|-----------------|-----------------|-------------------||
||--5-5-5---5---5-5-|-5---5---5-5-5---|-5---5-5-5---5---|-5-5-5---5---5-5---||


   Pre-Chorus
                                ~
    E E E  E  E E  E  E   E E E H    +E
||----------------------|----------------|
||----------------------|----------------|
||o---------------------|----------------|
||--9-9-----------------|----------------|
||o-7-7---10-10---------|-------8----(8)-|
||---------8--8---10-10-|---7-7-6----(6)-|
||-----------------8--8-|---5-5----------|


                              ~~~~~
  E E E  E  E E  E  E   E Q   H         +E
|---------------------|-----------------------||
|---------------------|-----------------------||
|---------------------|----------------------o||
|-9-9-----------------|-------9b10======(9)---||
|-7-7---10-10---------|-------7b8-------(7)--o||
|--------8--8---10-10-|---7-------------------||
|----------------8--8-|---5-------------------||


    W
||--------||
||--------||
||o------o||
||--------||
||o------o||
||--------||
||--------||


   Chorus
     ~~                           ~~                 ~
     H    Q  Q    Q  Q   Q  Q     H    Q  Q    Q  Q  H
||--------------|--------------|-------------|-------------||
||--------------|--------------|-------------|-------------||
||o-------------|--------------|-------------|------------o||
||--14----------|--------------|-14----------|-------------||
||o-------7--7--|-8--8--10--8--|-------7--7--|-8--8--5----o||
||--12----7--7--|-8--8--10--8--|-12----7--7--|-8--8--5-----||
||--------5--5--|-6--6---8--6--|-------5--5--|-6--6--3-----||


 Out-Chorus
          PM--------------------|
  H.      S S S S   H.    S S S S
|-----------------|---------------|
|-----------------|---------------|
|-----------------|---------------|
|-----------------|---------------|
|-----------------|---------------|
|---------7-7-7-7-|-------7-7-7-7-|
|---------5-5-5-5-|-------5-5-5-5-|


   Verse
    E E E E E E E E   E E E E E E E E   E E E E E E E E   E E E E E E E E   4x
||------------------|-----------------|-----------------|-------------------||
||------------------|-----------------|-----------------|-------------------||
||o-----------------|-----------------|-----------------|------------------o||
||------------------|-----------------|-----------------|-------------------||
||o-----------------|-----------------|-----------------|------------------o||
||------------------|-----------------|-----------------|-------------------||
||--5-5-5---5---5-5-|-5---5---5-5-5---|-5---5-5-5---5---|-5-5-5---5---5-5---||


   Pre-Chorus
                                ~
    E E E  E  E E  E  E   E E E H    +E
||----------------------|----------------|
||----------------------|----------------|
||o---------------------|----------------|
||--9-9-----------------|----------------|
||o-7-7---10-10---------|-------8----(8)-|
||---------8--8---10-10-|---7-7-6----(6)-|
||-----------------8--8-|---5-5----------|


                             ~~~~
  E E E  E  E E  E  E   E Q  H       +E
|---------------------|--------------------||
|---------------------|--------------------||
|---------------------|-------------------o||
|-9-9-----------------|------7b8=====(7)---||
|-7-7---10-10---------|-------------------o||
|--------8--8---10-10-|---7----------------||
|----------------8--8-|---5----------------||


    W
||--------||
||--------||
||o------o||
||--------||
||o------o||
||--------||
||--------||


   Chorus
     ~~                           ~~                 ~
     H    Q  Q    Q  Q   Q  Q     H    Q  Q    Q  Q  H
||--------------|--------------|-------------|------------||
||--------------|--------------|-------------|------------||
||o-------------|--------------|-------------|-----------o||
||--14----------|--------------|-14----------|------------||
||o-------7--7--|-8--8--10--8--|-------7--7--|-8--8--5---o||
||--12----7--7--|-8--8--10--8--|-12----7--7--|-8--8--5----||
||--------5--5--|-6--6---8--6--|-------5--5--|-6--6--3----||


   Bridge
     ~~   PM------------------|           ~~~               PM---|
     H    Q  Q     Q   Q   Q   Q   4x     H    E E E E   Q  Q  Q Q  3x
||--------------|------------------||-||---------------|------------||
||--------------|------------------||-||---------------|------------||
||o-20----------|-----------------o||-||o--------------|-----------o||
||--------9--9--|-10--10--12--12---||-||---------------|------------||
||o-18----9--9--|-10--10--12--12--o||-||o--------------|-----------o||
||--------7--7--|--8---8--10--10---||-||---------------|------------||
||--------------|------------------||-||--5b6--5-5-4-3-|-2--2--2-2--||


  ~~~
  H      E E E E   Q  H.
|----------------|----------|
|----------------|----------|
|----------------|----------|
|----------------|----------|
|----------------|----------|
|----------------|----------|
|-5b6----5-5-4-3-|-2--------|


   Chorus
     ~~                           ~~                 ~
     H    Q  Q    Q  Q   Q  Q     H    Q  Q    Q  Q  H
||--------------|--------------|-------------|------------||
||--------------|--------------|-------------|------------||
||o-------------|--------------|-------------|-----------o||
||--14----------|--------------|-14----------|------------||
||o-------7--7--|-8--8--10--8--|-------7--7--|-8--8--5---o||
||--12----7--7--|-8--8--10--8--|-12----7--7--|-8--8--5----||
||--------5--5--|-6--6---8--6--|-------5--5--|-6--6--3----||


                               ~~                 ~
  H    Q  Q    Q  Q   Q  Q     H    Q  Q    Q  Q  H
|------------|--------------|-------------|------------|
|------------|--------------|-------------|------------|
|------------|--------------|-------------|------------|
|------------|--------------|-14----------|------------|
|------7--7--|-8--8--10--8--|-------7--7--|-8--8--5----|
|------7--7--|-8--8--10--8--|-12----7--7--|-8--8--5----|
|------5--5--|-6--6---8--6--|-------5--5--|-6--6--3----|


   ~~                           ~~                 ~
   H    Q  Q    Q  Q   Q  Q     H    Q  Q    Q  Q  H
|-------------|--------------|-------------|------------|
|-------------|--------------|-------------|------------|
|-------------|--------------|-------------|------------|
|-14----------|--------------|-14----------|------------|
|-------7--7--|-8--8--10--8--|-------7--7--|-8--8--5----|
|-12----7--7--|-8--8--10--8--|-12----7--7--|-8--8--5----|
|-------5--5--|-6--6---8--6--|-------5--5--|-6--6--3----|


 Outro
  PM---------------------|
  Q  Q  Q  Q    Q  Q  Q  Q
|-------------|------------*|
|-------------|------------*|
|-------------|------------*|
|-------------|------------*|
|-------------|------------*|
|-------------|------------*|
|-5--5--5--5--|-5--5--5--5-*|


Duration Legend
---------------
W - whole; H - half; Q - quarter; E - 8th; S - 16th; T - 32nd; X - 64th; a - acciaccatura
+ - note tied to previous; . - note dotted; .. - note double dotted
Uncapitalized letters represent notes that are staccato (1/2 duration)
Irregular groupings are notated above the duration line
Duration letters will always appear directly above the note/fret number it represents the
duration for.  Duration letters with no fret number below them represent rests.  Multi-
bar rests are notated in the form Wxn, where n is the number of bars to rest for.  Low
melody durations appear below the staff

Tablature Legend
----------------
 h   - hammer-on
 p   - pull-off
 b   - bend
 pb  - pre-bend
 r   - bend release (if no number after the r, then release immediately)
 /\  - slide into or out of (from/to "nowhere")
 s   - legato slide
 S   - shift slide
  - natural harmonic
[n]  - artificial harmonic
n(n) - tapped harmonic
 ~   - vibrato
 tr  - trill
 T   - tap
 TP  - trem. picking
 PM  - palm muting
\n/  - tremolo bar dip; n = amount to dip
 \n  - tremolo bar down
 n/  - tremolo bar up
/n\  - tremolo bar inverted dip
 =   - hold bend; also acts as connecting device for hammers/pulls
 <>  - volume swell (louder/softer)
 x   - on rhythm slash represents muted slash
 o   - on rhythm slash represents single note slash

Misc Legend
-----------
 |  - bar
||  - double bar
||o - repeat start
o|| - repeat end
*|  - double bar (ending)
 :  - bar (freetime)
 $  - Segno
 &  - Coda
Tempo markers -  = BPM(8/16=s8/s16), where s8 = swing 8ths, s16 = swing 16ths


***************************************************************************************
* Generated using Power Tab Editor by Brad Larsen - http://powertab.guitarnetwork.org *
***************************************************************************************
Tap to rate this tab
# A B C D E F G H I J K L M N O P Q R S T U V W X Y Z