Song name
# A B C D E F G H I J K L M N O P Q R S T U V W X Y Z

Korn - Right Now tab

This is a special 6-string version for “Right Now” because most of you
probably haven’t got a 7-string guitar.
Note the exact tuning


Tuning: A-E-Db-Gb-B-Eb 
       -7-5 -1 -1-1 -1

- palm mute	p pull off
h hammer on	b bend
/ slide up	\ slide down
~ vibrato

Intro
(guitar2)		
Eb|-------------------------------------------------------|
B |-------------------------------------------------------|
Gb|-------------------------------------------------------|2x
Db|-------------------------------------------------------|
E |--------------8-------------7-------------6------------|
A |-0--0--1-0--0----0-0-1-0--0----0-0-1-0--0----0-0-1-0---|
            -             -             -             -
(guitar1&2)
|---------------------------------------------------------|
|---------------------------------------------------------|
|---------------------------------------------------------|  
|---------------------------------------------------------|
|--------------8-------------7-------------6--------------|
|-0--0--1-0--0----0-0-1-0--0----0-0-1-0--0----0-0-1-0-----|
          -             -             -             -

|---------------------------------------------------------|
|---------------------------------------------------------|
|---------------------------------------------------------|
|---------------------------------------------------------|
|----------------8-------------7-------------6------------|
|-0-0-0-0-1-0--0----0-0-1-0--0----0-0-1-0--0----0-0-1-0---|
            -             -             -             -

|---------------------------------------------------------|
|---------------------------------------------------------|
|---------------------------------------------------------|2x
|---------------------------------------------------------|
|--------------8-------------7-------------6--------------|
|-0--0--1-0--0----0-0-1-0--0----0-0-1-0--0----0-0-1-0-----|
          -             -             -             -

Verse
(guitar1&guitar2)
|----------------------------|
|----------------------------|
|----------------------------|8x
|----------------------------|
|----------------------------|
|-0--0h1-1b0----0-0-0-0-1-0--|
  -                       -

Chorus
(guitar1&guitar2)
|---------------------------------------------------------|
|---------------------------------------------------------|
|-------------(6)-----------(5)-----------(4)-------------|4x
|---------------------------------------------------------|
|--------------8-------------7-------------6--------------|
|-0--0--1-0--0----0-0-1-0--0----0-0-1-0--0----0-0-1-0-----|
          -             -             -             -

Bridge1                          Verse
(guitar1&guitar2)                (guitar1&guitar2)         
|----------------------------|   |----------------------------|
|----------------------------|   |----------------------------|
|----------------------------|1x |----------------------------|8x
|----------------------------|   |----------------------------|
|----------------------------|   |----------------------------|
|-0--0h1-1b0-----------------|   |-0--0h1-1b0----0-0-0-0-1-0--|
  -                                -                       - 

Verse
(guitar1&guitar2)
|----------------------------|
|----------------------------|
|----------------------------|8x
|----------------------------|
|----------------------------|
|-0--0h1-1b0----0-0-0-0-1-0--|
  -                       -

Chorus                                                        Bridge1
(guitar1&guitar2)                                             (guitar2)
|---------------------------------------------------------|   |-------|
|---------------------------------------------------------|   |-------|
|-------------(6)-----------(5)-----------(4)-------------|4x |-------|
|---------------------------------------------------------|   |-------|
|--------------8-------------7-------------6--------------|   |-------|
|-0--0--1-0--0----0-0-1-0--0----0-0-1-0--0----0-0-1-0-----|   |-0-----|
          -             -             -             -

Bridge2
(guitar1&guitar2)
|---------------------------|
|---------------------------|
|---------------------------|8x
|---------------------------|
|-4--4-h5-4~--4-4-4-4-5-4~--|
|-4--4-h5-4~--4-4-4-4-5-4~--|

Pre-Chorus
(guitar2)
|---------------------------------------------------------|
|---------------------------------------------------------|
|---------------------------------------------------------|
|---------------------------------------------------------|
|--------------8-------------7-------------6--------------|
|-0--0--1-0--0----0-0-1-0--0----0-0-1-0--0----0-0-1-0-----|
          -             -             -             -
|-----------------------------------------------------------|
|-----------------------------------------------------------|
|-----------------------------------------------------------|
|-----------------------------------------------------------|
|----------------8-------------7-------------6--------------|
|-0-0-0-0-1-0--0----0-0-1-0--0----0-0-1-0--0----0-0-1-0-----|
            -             -             -             -


Chorus
(guitar1&guitar2)
|---------------------------------------------------------|
|---------------------------------------------------------|
|-------------(6)-----------(5)-----------(4)-------------|4x
|---------------------------------------------------------|
|--------------8-------------7-------------6--------------|
|-0--0--1-0--0----0-0-1-0--0----0-0-1-0--0----0-0-1-0-----|
          -             -             -             -

Outro
(guitar1&guitar2)
|-----------------------------|
|-----------------------------|
|-----------------------------|4x 
|-----------------------------|
|-----------------------------|
|-0-0-0-0-1-0----0-0-0-0-1-0--|
            -             -

 |----------------------------|   |------------------------------|
 |----------------------------|   |------------------------------|
 |----------------------------|3x |------------------------------|1x
 |----------------------------|   |------------------------------|
(|-0--0-h1-0~---0-0-0-0-1-0~--|) (|-0-0-0-0-1-0~---0-0-0-0-1-0~--|)
 |-0--0-h1-0~---0-0-0-0-1-0~--|   |-0-0-0-0-1-0~---0-0-0-0-1-0~--|

                                  | this last part doesn’t work  |
                                  | with all kind of strings,    |
                                  | to manage it play only the   |
                                  | lowest one                   |


That’s it, hope you can enjoy.
e-mail to “olli_hm@web.de”

Keep banging!
Tap to rate this tab
# A B C D E F G H I J K L M N O P Q R S T U V W X Y Z