Song name
# A B C D E F G H I J K L M N O P Q R S T U V W X Y Z

Korn - Hey Daddy tab

Gtr I (A D G C F A D) - 'Munky (Left)'
Gtr II (A D G C F A D) - 'Head (Right)'
Gtr III (A D G C F A D) - 'Munky (Left)'


 Intro
  Moderately Q=96
  N.C.
 4/4
  Gtr I
  e S e S e S S e Q    e  S e S e S S e  Q
|--------------------|----------------------|
|--------------------|----------------------|
|--------------------|----------------------|
|--------------------|----------------------|
|-3-4-5-5-4-5-5-4----|-4--4-5-5-4-5-5-4-----|
|--------------------|----------------------|
|--------------------|----------------------|
|
| Gtr II
| W                    H.                Q
|--------------------|----------------------|
|--------------------|----------------------|
|--------------------|-6----------------10--|
|--------------------|----------------------|
|--------------------|----------------------|
|--------------------|----------------------|
|--------------------|----------------------|


  e  S e S e  S S e Q    e  S e S e S S e  Q    e S e S e  S  S e   Q
|----------------------|----------------------|------------------------|
|----------------------|----------------------|------------------------|
|----------------------|----------------------|------------------------|
|----------------------|----------------------|------------------------|
|-4--4-5-5-4--5-5-4----|-4--4-5-5-4-5-5-4-----|-4-4-5-5-4--5--5-4------|
|----------------------|----------------------|------------------------|
|----------------------|----------------------|------------------------|
|
| Q.       E  Q     Q    H.                Q    H         +E    S S Q
|------------10--------|----------------------|------------------------|
|----------------------|----------------------|------------------------|
|-9--------7--------7--|-6----------------10--|-9---------(9)---7h8-9--|
|----------------------|----------------------|------------------------|
|----------------------|----------------------|------------------------|
|----------------------|----------------------|------------------------|
|----------------------|----------------------|------------------------|


   Verse
    $
    N.C.
    e  S e S e S S e  Q    e  S e S e  S S e Q
||-----------------------|----------------------|
||-----------------------|----------------------|
||o----------------------|----------------------|
||-----------------------|----------------------|
||o-4--4-5-5-4-5-5-4-----|-4--4-5-5-4--5-5-4----|
||-----------------------|----------------------|
||-----------------------|----------------------|
|
|   H.                Q    Q.       E  Q     Q
||-----------------------|------------10--------|
||-----------------------|----------------------|
||o-6----------------10--|-9--------7--------7--|
||-----------------------|----------------------|
||o----------------------|----------------------|
||-----------------------|----------------------|
||-----------------------|----------------------|


  e  S e S e S S e  Q    e S e S e  S  S e   Q    4x
|----------------------|--------------------------||
|----------------------|--------------------------||
|----------------------|-------------------------o||
|----------------------|--------------------------||
|-4--4-5-5-4-5-5-4-----|-4-4-5-5-4--5--5-4-------o||
|----------------------|--------------------------||
|----------------------|--------------------------||
|
| H.                Q    H         +E    S S Q    4x
|----------------------|--------------------------||
|----------------------|--------------------------||
|-6----------------10--|-9---------(9)---7h8-9---o||
|----------------------|--------------------------||
|----------------------|-------------------------o||
|----------------------|--------------------------||
|----------------------|--------------------------||


   Chorus
                                                                D.S.
    N.C.
    Gtr III
    E S S S  S S S S E   S S S S S   E S S S  S S S S E   S S S S S   4x
||---------------------------------|----------------------------------||
||---------------------------------|----------------------------------||
||o---6---6--6-6-6---6-----7-7-7-7-|---6---6--6-6-6---6-----7-7-7-7--o||
||---------------------------------|----------------------------------||
||o---4---4--4-4-4---4-----5-5-5-5-|---4---4--4-4-4---4-----5-5-5-5--o||
||---------------------------------|----------------------------------||
||---------------------------------|----------------------------------||
|
|   E S S E.     E   S E   Q         E S S E.     E   S E   Q         4x
||---------------------------------|----------------------------------||
||---------------------------------|----------------------------------||
||o--------------------------------|---------------------------------o||
||---------------------------------|----------------------------------||
||o---4---4----------4-----5-------|---4---4----------4-----5--------o||
||---------------------------------|----------------------------------||
||--2---2--------2-----2---3-------|-2---2--------2-----2---3---------||


 Bridge
  N.C.
  Gtr I
  E   E   E   E E E Q         E   E   E   E E E Q
|---------------------------|---------------------------|
|-------------5-------------|-------------5-6-7---------|
|-4---5---7-----7-5-4-------|-4---5---7-----------------|
|---------------------------|---------------------------|
|---------------------------|---------------------------|
|---------------------------|---------------------------|
|---------------------------|---------------------------|
|
| S S S e   S E E E S S S S   S S S e   S E E E S S S S
|-------------------7-8-7-8-|-------------------7-8-7-8-|
|---------------------------|---------------------------|
|---------------------------|---------------------------|
|---------------------------|---------------------------|
|---------------------------|---------------------------|
|---7---7---7---7-----------|---7---7---7---7-----------|
|-0---0-------0---0---------|-0---0-------0---0---------|


  E   E   E   E E E Q         E   E   E   E Q.       E
|---------------------------|-------------------------------|
|-------------5-------------|-------------5-6---------------|
|-4---5---7-----7-5-4-------|-4---5---7---------------------|
|---------------------------|-------------------------------|
|---------------------------|-------------------------------|
|---------------------------|-------------------------------|
|---------------------------|-------------------------------|
|
| S S S e   S E E E S S S S   S S S e   S E E  E S S S S
|-------------------7-8-7-8-|--------------------7-8-7-8----|
|---------------------------|-------------------------------|
|---------------------------|-------------------------------|
|---------------------------|-------------------------------|
|---------------------------|-------------------------------|
|---7---7---7---7-----------|---7---7---7---7---------------|
|-0---0-------0---0---------|-0---0-------0----0------------|


  E   E   E   E E E Q         E   E   E   E E E E   E
|---------------3-5-7-------|-7---8---7-----------------|
|-------------5-------------|---------------5-7-8-------|
|-4---5---7-----------------|-------------7-------------|
|---------------------------|---------------------------|
|---------------------------|---------------------------|
|---------------------------|---------------------------|
|---------------------------|---------------------------|
|
| S S S e   S E E E S S S S   S S S e   S E E E S S S S
|-------------------7-8-7-8-|-------------------7-8-7-8-|
|---------------------------|---------------------------|
|---------------------------|---------------------------|
|---------------------------|---------------------------|
|---------------------------|---------------------------|
|---7---7---7---7-----------|---7---7---7---7-----------|
|-0---0-------0---0---------|-0---0-------0---0---------|


  E   E   E   E E E Q         E   E   E   E E E Q
|---------------3-5-7-------|-7---8---7-------------|
|-------------5-------------|---------------5-7-----|
|-4---5---7-----------------|-------------7---------|
|---------------------------|-----------------------|
|---------------------------|-----------------------|
|---------------------------|-----------------------|
|---------------------------|-----------------------|
|
| S S S e   S E E E S S S S   S S S e   S E E E Q
|-------------------7-8-7-8-|-----------------------|
|---------------------------|-----------------------|
|---------------------------|-----------------------|
|---------------------------|-----------------------|
|---------------------------|-----------------------|
|---7---7---7---7-----------|---7---7---7---7-------|
|-0---0-------0---0---------|-0---0-------0---0-----|


   Chorus
    N.C.
    Gtr III
    E S S S  S S S S E   S S S S S   E S S S  S S S S E   S S S S S   8x
||---------------------------------|----------------------------------||
||---------------------------------|----------------------------------||
||o---6---6--6-6-6---6-----7-7-7-7-|---6---6--6-6-6---6-----7-7-7-7--o||
||---------------------------------|----------------------------------||
||o---4---4--4-4-4---4-----5-5-5-5-|---4---4--4-4-4---4-----5-5-5-5--o||
||---------------------------------|----------------------------------||
||---------------------------------|----------------------------------||
|
|   E S S E.     E   S E   Q         E S S E.     E   S E   Q         8x
||---------------------------------|----------------------------------||
||---------------------------------|----------------------------------||
||o--------------------------------|---------------------------------o||
||---------------------------------|----------------------------------||
||o---4---4----------4-----5-------|---4---4----------4-----5--------o||
||---------------------------------|----------------------------------||
||--2---2--------2-----2---3-------|-2---2--------2-----2---3---------||


 Outro
  N.C.
  Gtr II
  H.       Q    Q.   E  Q  Q    H.       Q    H    +E  S S Q
|-------------|--------10-----|-------------|-----------------|
|-------------|---------------|-------------|-----------------|
|-6-------10--|-9----7-----7--|-6-------10--|-9----(9)-7h8-9--|
|-------------|---------------|-------------|-----------------|
|-------------|---------------|-------------|-----------------|
|-------------|---------------|-------------|-----------------|
|-------------|---------------|-------------|-----------------|


    Gtr I
    e  S e S e S S e  Q    e  S e S e  S S e Q
||-----------------------|----------------------|
||-----------------------|----------------------|
||o----------------------|----------------------|
||-----------------------|----------------------|
||o-4--4-5-5-4-5-5-4-----|-4--4-5-5-4--5-5-4----|
||-----------------------|----------------------|
||-----------------------|----------------------|
|
|   Gtr II
|   H.                Q    Q.       E  Q     Q
||-----------------------|------------10--------|
||-----------------------|----------------------|
||o-6----------------10--|-9--------7--------7--|
||-----------------------|----------------------|
||o----------------------|----------------------|
||-----------------------|----------------------|
||-----------------------|----------------------|


  e  S e S e S S e  Q    e S e S e  S  S e   Q
|----------------------|--------------------------||
|----------------------|--------------------------||
|----------------------|-------------------------o||
|----------------------|--------------------------||
|-4--4-5-5-4-5-5-4-----|-4-4-5-5-4--5--5-4-------o||
|----------------------|--------------------------||
|----------------------|--------------------------||
|
| H.                Q    H         +E    S S Q
|----------------------|--------------------------||
|----------------------|--------------------------||
|-6----------------10--|-9---------(9)---7h8-9---o||
|----------------------|--------------------------||
|----------------------|-------------------------o||
|----------------------|--------------------------||
|----------------------|--------------------------||




--------------------------------------------------------------------------------


Duration Legend
---------------
W - whole; H - half; Q - quarter; E - 8th; S - 16th; T - 32nd; X - 64th; a - acciaccatura
+ - note tied to previous; . - note dotted; .. - note double dotted
Uncapitalized letters represent notes that are staccato (1/2 duration)
Irregular groupings are notated above the duration line
Duration letters will always appear directly above the note/fret number it represents the
duration for.  Duration letters with no fret number below them represent rests.  Multi-
bar rests are notated in the form Wxn, where n is the number of bars to rest for.  Low
melody durations appear below the staff

Tablature Legend
----------------
 h   - hammer-on
 p   - pull-off
 b   - bend
 pb  - pre-bend
 r   - bend release (if no number after the r, then release immediately)
 /\  - slide into or out of (from/to "nowhere")
 s   - legato slide
 S   - shift slide
 - natural harmonic
[n]  - artificial harmonic
n(n) - tapped harmonic
 ~   - vibrato
 tr  - trill
 T   - tap
 TP  - trem. picking
 PM  - palm muting
\n/  - tremolo bar dip; n = amount to dip
 \n  - tremolo bar down
 n/  - tremolo bar up
/n\  - tremolo bar inverted dip
 =   - hold bend; also acts as connecting device for hammers/pulls
 <> - volume swell (louder/softer)
 x   - on rhythm slash represents muted slash
 o   - on rhythm slash represents single note slash

Misc Legend
-----------
 |  - bar
||  - double bar
||o - repeat start
o|| - repeat end
*|  - double bar (ending)
 :  - bar (freetime)
 $  - Segno
 &  - Coda
Tempo markers -  = BPM(8/16=s8/s16), where s8 = swing 8ths, s16 = swing 16ths


Tap to rate this tab
# A B C D E F G H I J K L M N O P Q R S T U V W X Y Z