Song name
# A B C D E F G H I J K L M N O P Q R S T U V W X Y Z

Korn - Trash tab

KoRn - Trash - Issues

Tabbed by Elvisz (elvisz@kornkids.com)
Tuning : 7 String Tuned Low to High (A D G C F a d)

Vocal: Jonathan Houseman Davis 'Hiv'
Guitar1: Brian Phillip Welch 'Head'
Guitar2: James Randal Shaffer 'Munky'
Bass: Reginald Arvizu 'Fieldy'
Drums: David Silveria

Intro & Chorus:
d|---------------------------------------------------|
a|-------0---0-------0---0--------0---0-------0---0--|
F|---------------------------------------------------|
C|-----4---4-------4---4--------4---4-------4---4----|	(Guitar2)
G|--2-----------3-----------44-----------3-----------|
D|--2-----------3-----------44-----------3-----------|
A|--0-----------1-----------22-----------1-----------|

d|--------------------------------|
a|--------------------------------|
F|-11-9-14-12-11-9-11--9-14-19-12-|
C|-xx-x-xx-xx-xx-x-xx--x-xx-xx-xx-|	(Guitar1 tremolo picked)
G|- 9-7-12-10- 9-7- 9--7-12-14-10-|
D|--------------------------------|
A|--------------------------------|

Verse:
(Guitar1)
d|--------------------------------------------------|--------------------------------------------------|
a|--------------------------------------------------|--------------------------------------------------|
F|-11-11-11-11-11-11-11-11--10-10-10-10-10-10-10-10-|-11-11-11-11-11-11-11-11--10-10-10-10/14-14-14-13-|
C|--------------------------------------------------|--------------------------------------------------|
G|--------------------------------------------------|--------------------------------------------------|
D|--------------------------------------------------|--------------------------------------------------|
A|--------------------------------------------------|--------------------------------------------------|

(Guitar2)
d|----11----------9-----11------9---|----11---------9-----11---------9--|
a|-------10----10----------10-9---9-|-------10-9-10----------10-9------9|
F|----------------------------------|-----------------------------------|
C|-11-------11-------11-------------|-11---------------11---------11----|
G|----------------------------------|-----------------------------------|
D|----------------------------------|-----------------------------------|
A|----------------------------------|-----------------------------------|

Bridge1:(Guitar1 & Guitar2)
d|-----------------------|---------------------|
a|-----------------------|---------------------|
F|-----------------------|---------------------|
C|-----------------------|---------------------|
G|--4-4-4-4-4-4-4-4-4--5-|-4-4-4-4-4-4-4-4-4-/5|
D|--4-4-4-4-4-4-4-4-4--5-|-4-4-4-4-4-4-4-4-4-/5|
A|--2-0-2-0-2-0-2-0-2--3-|-2-0-2-0-2-0-2-0-2-/3|

Chorus:
d|---------------------------------------------------|
a|-------0---0-------0---0--------0---0-------0---0--|
F|---------------------------------------------------|
C|-----4---4-------4---4--------4---4-------4---4----|	(Guitar2)
G|--2-----------3-----------44-----------3-----------|
D|--2-----------3-----------44-----------3-----------|
A|--0-----------1-----------22-----------1-----------|

d|--------------------------------|
a|--------------------------------|
F|-11-9-14-12-11-9-11--9-14-19-12-|
C|-xx-x-xx-xx-xx-x-xx--x-xx-xx-xx-|	(Guitar1 tremolo picked)
G|- 9-7-12-10- 9-7- 9--7-12-14-10-|
D|--------------------------------|
A|--------------------------------|

Verse:
(Guitar1)
d|--------------------------------------------------|--------------------------------------------------|
a|--------------------------------------------------|--------------------------------------------------|
F|-11-11-11-11-11-11-11-11--10-10-10-10-10-10-10-10-|-11-11-11-11-11-11-11-11--10-10-10-10/14-14-14-13-|
C|--------------------------------------------------|--------------------------------------------------|
G|--------------------------------------------------|--------------------------------------------------|
D|--------------------------------------------------|--------------------------------------------------|
A|--------------------------------------------------|--------------------------------------------------|

(Guitar2)
d|----11----------9-----11------9---|----11---------9-----11---------9--|
a|-------10----10----------10-9---9-|-------10-9-10----------10-9------9|
F|----------------------------------|-----------------------------------|
C|-11-------11-------11-------------|-11---------------11---------11----|
G|----------------------------------|-----------------------------------|
D|----------------------------------|-----------------------------------|
A|----------------------------------|-----------------------------------|

Bridge1:(Guitar1 & Guitar2)
d|-----------------------|---------------------|
a|-----------------------|---------------------|
F|-----------------------|---------------------|
C|-----------------------|---------------------|
G|--4-4-4-4-4-4-4-4-4--5-|-4-4-4-4-4-4-4-4-4-/5|
D|--4-4-4-4-4-4-4-4-4--5-|-4-4-4-4-4-4-4-4-4-/5|
A|--2-0-2-0-2-0-2-0-2--3-|-2-0-2-0-2-0-2-0-2-/3|

Chorus:
d|---------------------------------------------------|
a|-------0---0-------0---0--------0---0-------0---0--|
F|---------------------------------------------------|
C|-----4---4-------4---4--------4---4-------4---4----|	(Guitar2)
G|--2-----------3-----------44-----------3-----------|
D|--2-----------3-----------44-----------3-----------|
A|--0-----------1-----------22-----------1-----------|

d|--------------------------------|
a|--------------------------------|
F|-11-9-14-12-11-9-11--9-14-19-12-|
C|-xx-x-xx-xx-xx-x-xx--x-xx-xx-xx-|	(Guitar1 tremolo picked)
G|- 9-7-12-10- 9-7- 9--7-12-14-10-|
D|--------------------------------|
A|--------------------------------|

Bridge2:(Guitar1 & Guitar2)
d|------------------------|
a|------------------------|
F|------------------------|
C|------------------------|
G|-4\3/4-4-4-4-4-4-4-4-3--|
D|-4\3/4-4-4-4-4-4-4-4-3--|
A|-2\1/2-0-2-0-2-0-2-0-1--|

Chorus:
d|---------------------------------------------------|
a|-------0---0-------0---0--------0---0-------0---0--|
F|---------------------------------------------------|
C|-----4---4-------4---4--------4---4-------4---4----|	(Guitar2)
G|--2-----------3-----------44-----------3-----------|
D|--2-----------3-----------44-----------3-----------|
A|--0-----------1-----------22-----------1-----------|

d|--------------------------------|
a|--------------------------------|
F|-11-9-14-12-11-9-11--9-14-19-12-|
C|-xx-x-xx-xx-xx-x-xx--x-xx-xx-xx-|	(Guitar1 tremolo picked)
G|- 9-7-12-10- 9-7- 9--7-12-14-10-|
D|--------------------------------|
A|--------------------------------|
Tap to rate this tab
# A B C D E F G H I J K L M N O P Q R S T U V W X Y Z