Song name
# A B C D E F G H I J K L M N O P Q R S T U V W X Y Z

Korn - Got The Life tab

----------------------------------------------------------------------------
			     Got The Life - KoRn
----------------------------------------------------------------------------

Tabbed by:Eduardo Lan
Email:eduradolan_12@hotmail.com

Tuning: 7 String Tuned Low to High (A D G C F a d)
This tab is 100% correct (HEAD and Munky)

Intro:
HEAD
d|-----------------------------------------||----------------------------------------|
a|-----------------------------------------||----------------------------------------|
F|-11-11-11-11-11-9-9-12-12-12-18-18-18/19-||-11-11-11-11-11-9-9-12-12-12-7-7-7-7-7--|
C|--x--x--x--x--x-x-x-xx-xx-xx-xx-xx-xx-xx-||--x--x--x--x--x-x-x-xx-xx-xx-x-x-x-x-x--|
G|--9--9--9--9--9-7-7-10-10-10-16-16-16/17-||--9--9--9--9--9-7-7-10-10-10-5-5-5-5-5--|
D|-----------------------------------------||----------------------------------------|
A|-----------------------------------------||----------------------------------------|


d|------------------------------|
a|------------------------------|
F|-11-11-11-11-11-9-9-12-12-12--|
C|--x--x--x--x--x-x-x-xx-xx-xx--|
G|--9--9--9--9--9-7-7-10-10-10--|
D|------------------------------|
A|------------------------------| all intro x2 (head)

Munky
d|----------------------------------------|
a|----------------------------------------|
F|-7----7----7----5----8----8----3----3---|
C|-8----8----8----6----9----9----4----4---|
G|-9----9----9----7---10---10----5----5---|
D|-9----9----9----7---10---10----5----5---|
A|-7----7----7----5----8----8----3----3---|x3


d|----------------------------------------------------|
a|----------------------------------------------------|
F|-7----7----7----5--5--5--8--8--8--8--8--8--8--------|
C|-8----8----8----6--6--6--9--9--9--9--9--9--9--------|
G|-9----9----9----7--7--7-10-10-10-10-10-10-10--------|
D|-9----9----9----7--7--7-10-10-10-10-10-10-10--------|
A|-7----7----7----5--5--5--8--8--8--8--8--8--8--------|all intro x2 (munky)

Verse
HEAD              Munky     HEAD
d|-------7*-----| |--2----| |------12*--7*----|
a|-7*-------7*--| |--3^---| |---7*---------7*-|
F|----5*--------| |--4^---| |-----------------|
C|--------------| |--4^---| |-----------------|
G|--------------| |--2^---| |-----------------|
D|--------------| |-------| |-----------------|
A|--------------| |-------| |-----------------|

Chorus
HEAD
d|-----------------------------------------||----------------------------------------|
a|-----------------------------------------||----------------------------------------|
F|-11-11-11-11-11-9-9-12-12-12-18-18-18/19-||-11-11-11-11-11-9-9-12-12-12-7-7-7-7-7--|
C|--x--x--x--x--x-x-x-xx-xx-xx-xx-xx-xx-xx-||--x--x--x--x--x-x-x-xx-xx-xx-x-x-x-x-x--|
G|--9--9--9--9--9-7-7-10-10-10-16-16-16/17-||--9--9--9--9--9-7-7-10-10-10-5-5-5-5-5--|
D|-----------------------------------------||----------------------------------------|
A|-----------------------------------------||----------------------------------------|


d|------------------------------|
a|------------------------------|
F|-11-11-11-11-11-9-9-12-12-12--|
C|--x--x--x--x--x-x-x-xx-xx-xx--|
G|--9--9--9--9--9-7-7-10-10-10--|
D|------------------------------|
A|------------------------------| all chorus x2 (head)

Munky
d|----------------------------------------|
a|----------------------------------------|
F|-7----7----7----5----8----8----3----3---|
C|-8----8----8----6----9----9----4----4---|
G|-9----9----9----7---10---10----5----5---|
D|-9----9----9----7---10---10----5----5---|
A|-7----7----7----5----8----8----3----3---|x3


d|----------------------------------------------------|
a|----------------------------------------------------|
F|-7----7----7----5--5--5--8--8--8--8--8--8--8--------|
C|-8----8----8----6--6--6--9--9--9--9--9--9--9--------|
G|-9----9----9----7--7--7-10-10-10-10-10-10-10--------|
D|-9----9----9----7--7--7-10-10-10-10-10-10-10--------|
A|-7----7----7----5--5--5--8--8--8--8--8--8--8--------|all chorus x2 (munky)

 HEAD   Munky
d|-----|------------------------|
a|-0---|-----7^--------7^---10^-|
F|-----|--7^----9^--7^----9^----|
C|-----|------------------------|
G|-----|------------------------|
D|-----|------------------------|
A|-----|------------------------|Munky x2

 Munky    HEAD     Munky                     
d|-----|  |-19^-|  |--2--|
a|-12^-|  |-----|  |--3--|
F|-----|  |-----|  |--4--|
C|-----|  |-----|  |--4--|
G|-----|  |-----|  |--2--|
D|-----|  |-----|  |-----|
A|-----|  |-----|  |-----|x4


Chorus
HEAD
d|-----------------------------------------||----------------------------------------|
a|-----------------------------------------||----------------------------------------|
F|-11-11-11-11-11-9-9-12-12-12-18-18-18/19-||-11-11-11-11-11-9-9-12-12-12-7-7-7-7-7--|
C|--x--x--x--x--x-x-x-xx-xx-xx-xx-xx-xx-xx-||--x--x--x--x--x-x-x-xx-xx-xx-x-x-x-x-x--|
G|--9--9--9--9--9-7-7-10-10-10-16-16-16/17-||--9--9--9--9--9-7-7-10-10-10-5-5-5-5-5--|
D|-----------------------------------------||----------------------------------------|
A|-----------------------------------------||----------------------------------------|


d|------------------------------|
a|------------------------------|
F|-11-11-11-11-11-9-9-12-12-12--|
C|--x--x--x--x--x-x-x-xx-xx-xx--|
G|--9--9--9--9--9-7-7-10-10-10--|
D|------------------------------|
A|------------------------------| all chorus x2 (head)

Munky
d|----------------------------------------|
a|----------------------------------------|
F|-7----7----7----5----8----8----3----3---|
C|-8----8----8----6----9----9----4----4---|
G|-9----9----9----7---10---10----5----5---|
D|-9----9----9----7---10---10----5----5---|
A|-7----7----7----5----8----8----3----3---|x3


d|----------------------------------------------------|
a|----------------------------------------------------|
F|-7----7----7----5--5--5--8--8--8--8--8--8--8--------|
C|-8----8----8----6--6--6--9--9--9--9--9--9--9--------|
G|-9----9----9----7--7--7-10-10-10-10-10-10-10--------|
D|-9----9----9----7--7--7-10-10-10-10-10-10-10--------|
A|-7----7----7----5--5--5--8--8--8--8--8--8--8--------|all chorus x2 (munky)

End
HEAD
d|--------------------------------------------------------|
a|--------------------------------------18-18-18-18-18-18-|
F|-18-18-18-18-18-18-19-19-19-19-19-19---x--x--x--x--x--x-|
C|--x--x--x--x--x--x--x--x--x--x--x--x--16-16-16-16-16-16-|
G|-16-16-16-16-16-16-17-17-17-17-17-17--------------------|
D|--------------------------------------------------------|
A|--------------------------------------------------------|x12

d|----------------------------------------------|
a|-18-18-18-18-18-18-19-19-19-19-19-19-19-19----|
F|--x--x--x--x--x--x--x--x--x--x--x--x--x--x----|
C|-16-16-16-16-16-16-17-17-17-17-17-17-17-17----|
G|----------------------------------------------|
D|----------------------------------------------|
A|----------------------------------------------|



| /  slide up
| \  slide down
| h  hammer-on
| p  pull-off
| ~  vibrato
| * harmonic
| x  Mute note
============================================================================
Tap to rate this tab
 
# A B C D E F G H I J K L M N O P Q R S T U V W X Y Z