Song name
# A B C D E F G H I J K L M N O P Q R S T U V W X Y Z

Korn - Reclaim My Place tab

Gtr I (A D G C F A D) - 'Head - Distortion Guitar'
Gtr II (A D G C F A D) - 'Munky - Distortion Guitar'
Gtr III (A D G C F A D) - 'Clean Guitar'
Gtr IV (A D G C F A D) - 'Muted Guitar'


 Intro
  Moderate Rock Q=112
  N.C.
 4/4
  Gtr I
    PM|                      PM|     PM|                      PM|
  S E S S  S  S  S S S S S S E S   S E S S  S  S  S S S S S S E S
|--------------------------------|--------------------------------|
|--------------------------------|--------------------------------|
|--------------------------------|--------------------------------|
|--------------------------------|--------------------------------|
|--------------------------------|--------------------------------|
|-7-----7S10-10-10-9-9-9-8-8s7---|-7-----7S10-10-10-9-9-9-8-8s7---|
|---0-0----------------------0-0-|---0-0----------------------0-0-|


    PM|                      PM|     PM|
  S E S S  S  S  S S S S S S E S   S E S S  S  S  S S S S S Q
|--------------------------------|-----------------------------|
|--------------------------------|-----------------------------|
|--------------------------------|-----------------------------|
|--------------------------------|-----------------------------|
|--------------------------------|-----------------------------|
|-7-----7S10-10-10-9-9-9-8-8s7---|-7-----7S10-10-10-9-9-9-8-8--|
|---0-0----------------------0-0-|---0-0-----------------------|


   Chorus
    $
            D         C#       C     B
    Gtrs I, II
      PM|                            PM|
    S E S S   S  S  S  S  S  S  S  S E S
||---------------------------------------|
||---------------------------------------|
||o--------------------------------------|
||----------/12-12-12-11-11-11-10-10s9---|
||o--------------------------------------|
||--7-----7S=10-10-10--9--9--9--8--8s7---|
||----0-0----------------------------0-0-|


          D         C#       C     B
    PM|                            PM|
  S E S S   S  S  S  S  S  S  S  S E S  3x
|---------------------------------------||
|---------------------------------------||
|--------------------------------------o||
|---------/12-12-12-11-11-11-10-10s9----||
|--------------------------------------o||
|-7-----7S=10-10-10--9--9--9--8--8s7----||
|---0-0----------------------------0-0--||


          D         C#       C     B             D         C#       C  Cmaj7
    PM|                            PM|     PM|
  S E S S   S  S  S  S  S  S  S  S E S   S E S S   S  S  S  S  S  S  S  S  E.
|--------------------------------------|--------------------------------0--0--|
|--------------------------------------|--------------------------------0--0--|
|--------------------------------------|--------------------------------------|
|---------/12-12-12-11-11-11-10-10s9---|---------/12-12-12-11-11-11-10-10-10--|
|--------------------------------------|--------------------------------------|
|-7-----7S=10-10-10--9--9--9--8--8s7---|-7-----7S=10-10-10--9--9--9--8--8--8--|
|---0-0----------------------------0-0-|---0-0--------------------------------|


   Verse
                         1.,2.,3.                4.
                                                 D.S.
    N.C.
    Q  E. S S S S e e S   Q  e S S S S S S Q   4x Q  H.
||----------------------|----------------------||----------|
||----------------------|----------------------||----------|
||o-4-------------------|-4-------------------o||-4--------|
||--4-------------------|-4--------------------||-4--------|
||o---------------------|---------------------o||----------|
||--3-------------------|-3--------------------||-3--------|
||--------0-2h3p2-0-2-0-|----0---0-2h3p2-0-----||----------|


   Chorus
            D         C#       C     B
      PM|                            PM|
    S E S S   S  S  S  S  S  S  S  S E S
||---------------------------------------|
||---------------------------------------|
||o--------------------------------------|
||----------/12-12-12-11-11-11-10-10s9---|
||o--------------------------------------|
||--7-----7S=10-10-10--9--9--9--8--8s7---|
||----0-0----------------------------0-0-|


          D         C# B     C     B
    PM|                            PM|
  S E S S   S  S  S  S  S  S  S  S E S  3x
|---------------------------------------||
|---------------------------------------||
|--------------------------------------o||
|---------/12-12-12-11-11-11-10-10s9----||
|--------------------------------------o||
|-7-----7S=10-10-10--9--9--9--8--8s7----||
|---0-0----------------------------0-0--||


          D         C#       C     B             D         C#       C  Cmaj7
    PM|                            PM|     PM|
  S E S S   S  S  S  S  S  S  S  S E S   S E S S   S  S  S  S  S  S  S  Q
|--------------------------------------|--------------------------------0--|
|--------------------------------------|--------------------------------0--|
|--------------------------------------|-----------------------------------|
|---------/12-12-12-11-11-11-10-10s9---|---------/12-12-12-11-11-11-10-10--|
|--------------------------------------|-----------------------------------|
|-7-----7S=10-10-10--9--9--9--8--8s7---|-7-----7S=10-10-10--9--9--9--8--8--|
|---0-0----------------------------0-0-|---0-0-----------------------------|


 4/4
    >
   +W            +W            +W            +W
|--(0)--------|--(0)--------|--(0)--------|--(0)----|
|--(0)--------|--(0)--------|--(0)--------|--(0)----|
|-------------|-------------|-------------|---------|
|-(10)--------|-(10)--------|-(10)--------|-(10)----|
|-------------|-------------|-------------|---------|
|--(8)--------|--(8)--------|--(8)--------|--(8)----|
|-------------|-------------|-------------|---------|


   +W            +W            +W            +W
|--(0)--------|--(0)--------|--(0)--------|--(0)----|
|--(0)--------|--(0)--------|--(0)--------|--(0)----|
|-------------|-------------|-------------|---------|
|-(10)--------|-(10)--------|-(10)--------|-(10)----|
|-------------|-------------|-------------|---------|
|--(8)--------|--(8)--------|--(8)--------|--(8)----|
|-------------|-------------|-------------|---------|


   Bridge
    Wx4
||---------|
||---------|
||o--------|
||---------|
||o--------|
||---------|
||---------|


  Gtr III
  E Q   E  +H        +E  Q   E  +H
|------14-(14)----|-(14)----13-(13)----|
|-----------------|--------------------|
|---9-------------|------9-------------|
|-----------------|--------------------|
|-----------------|--------------------|
|-----------------|--------------------|
|-----------------|--------------------|


   +E  Q   E  +H        +E  E  E  E  +H
|-(13)----12-(12)----|-(12)---11-------------||
|--------------------|-----------11-(11)-----||
|------9-------------|------9---------------o||
|--------------------|-----------------------||
|--------------------|----------------------o||
|--------------------|-----------------------||
|--------------------|-----------------------||


  Wx8
|--------|
|--------|
|--------|
|--------|
|--------|
|--------|
|--------|


   Breakdown
    Em11
    Gtrs I, II
    Q  e S S S S S e e S   Q  e S S S S S e e S  3x
||--0--------------------|-0---------------------||
||--0--------------------|-0---------------------||
||o-0--------------------|-0--------------------o||
||--0--------------------|-0---------------------||
||o-0--------------------|-0--------------------o||
||--0--------------------|-0---------------------||
||-----0---0-2h3p2-0-2-0-|----0---0-2h3p2-0-2-0--||


  Em11
  Q  e S S S S S e e S   Q  e S S S S S S Q    W
|-0--------------------|-0-------------------|------|
|-0--------------------|-0-------------------|------|
|-0--------------------|-0-------------------|-4----|
|-0--------------------|-0-------------------|-4----|
|-0--------------------|-0-------------------|------|
|-0--------------------|-0-------------------|-3----|
|----0---0-2h3p2-0-2-0-|----0---0-2h3p2-0----|------|


   Chorus
            D         C#       C     B
      PM|                            PM|
    S E S S   S  S  S  S  S  S  S  S E S
||---------------------------------------|
||---------------------------------------|
||o--------------------------------------|
||----------/12-12-12-11-11-11-10-10s9---|
||o--------------------------------------|
||--7-----7S=10-10-10--9--9--9--8--8s7---|
||----0-0----------------------------0-0-|


          D         C#       C     B
    PM|                            PM|
  S E S S   S  S  S  S  S  S  S  S E S  3x
|---------------------------------------||
|---------------------------------------||
|--------------------------------------o||
|---------/12-12-12-11-11-11-10-10s9----||
|--------------------------------------o||
|-7-----7S=10-10-10--9--9--9--8--8s7----||
|---0-0----------------------------0-0--||


          D         C#       C     B             D         C#       C  Cmaj7
    PM|                            PM|     PM|
  S E S S   S  S  S  S  S  S  S  S E S   S E S S   S  S  S  S  S  S  S  S  E.
|--------------------------------------|--------------------------------0--0--|
|--------------------------------------|--------------------------------0--0--|
|--------------------------------------|--------------------------------------|
|---------/12-12-12-11-11-11-10-10s9---|---------/12-12-12-11-11-11-10-10-10--|
|--------------------------------------|--------------------------------------|
|-7-----7S=10-10-10--9--9--9--8--8s7---|-7-----7S=10-10-10--9--9--9--8--8--8--|
|---0-0----------------------------0-0-|---0-0--------------------------------|


   Interlude
    N.C.
    Gtr IV
      PM|                      PM|     PM|                      PM|
    S E S S  S  S  S S S S S S E S   S E S S  S  S  S S S S S S E S  3x
||---------------------------------|---------------------------------||
||---------------------------------|---------------------------------||
||o--------------------------------|--------------------------------o||
||---------------------------------|---------------------------------||
||o--------------------------------|--------------------------------o||
||--7-----7S10-10-10-9-9-9-8-8s7---|-7-----7S10-10-10-9-9-9-8-8s7----||
||----0-0----------------------0-0-|---0-0----------------------0-0--||


    PM|                      PM|     PM|                      PM
  S E S S  S  S  S S S S S S E S   S E S S  S  S  S S S S S S S E
|--------------------------------|---------------------------------|
|--------------------------------|---------------------------------|
|--------------------------------|---------------------------------|
|--------------------------------|---------------------------------|
|--------------------------------|---------------------------------|
|-7-----7S10-10-10-9-9-9-8-8s7---|-7-----7S10-10-10-9-9-9-8-8s7----|
|---0-0----------------------0-0-|---0-0----------------------0----|


   Chorus
            D         C#       C     B
    Gtrs I, II
      PM|
    S E S S   S  S  S  S  S  S  S  S S E
||-------------------------------------0-|
||-------------------------------------0-|
||o--------------------------------------|
||----------/12-12-12-11-11-11-10-10s9---|
||o--------------------------------------|
||--7-----7S=10-10-10--9--9--9--8--8s7---|
||----0-0----------------------------0---|


          D         C#       C     B
    PM|
  S E S S   S  S  S  S  S  S  S  S S E  4x
|------------------------------------0--||
|------------------------------------0--||
|--------------------------------------o||
|---------/12-12-12-11-11-11-10-10s9----||
|--------------------------------------o||
|-7-----7S=10-10-10--9--9--9--8--8s7----||
|---0-0----------------------------0----||


   Outro
            D5    C#5   C5Cmaj7        D5    C#5   C5Cmaj7
      PM|                        PM|
    S e S S S S S S S S S Q    S e S S S S S S S S S Q   4x
||------------------------0--|-----------------------0---||
||------------------------0--|-----------------------0---||
||o-----------------------0--|-----------------------0--o||
||---------------------------|---------------------------||
||o---------5-5-5-4-4-4-3-3--|---------5-5-5-4-4-4-3-3--o||
||----------5-5-5-4-4-4-3-3--|---------5-5-5-4-4-4-3-3---||
||--0-0-0-0-3-3-3-2-2-2-1-1--|-0-0-0-0-3-3-3-2-2-2-1-1---||


  +W           +W           +W           +W           +W
|-(0)--------|-(0)--------|-(0)--------|-(0)--------|-(0)----*|
|-(0)--------|-(0)--------|-(0)--------|-(0)--------|-(0)----*|
|-(0)--------|-(0)--------|-(0)--------|-(0)--------|-(0)----*|
|------------|------------|------------|------------|--------*|
|-(3)--------|-(3)--------|-(3)--------|-(3)--------|-(3)----*|
|-(3)--------|-(3)--------|-(3)--------|-(3)--------|-(3)----*|
|-(1)--------|-(1)--------|-(1)--------|-(1)--------|-(1)----*|




--------------------------------------------------------------------------------


Duration Legend
---------------
W - whole; H - half; Q - quarter; E - 8th; S - 16th; T - 32nd; X - 64th; a - acciaccatura
+ - note tied to previous; . - note dotted; .. - note double dotted
Uncapitalized letters represent notes that are staccato (1/2 duration)
Irregular groupings are notated above the duration line
Duration letters will always appear directly above the note/fret number it represents the
duration for.  Duration letters with no fret number below them represent rests.  Multi-
bar rests are notated in the form Wxn, where n is the number of bars to rest for.  Low
melody durations appear below the staff

Tablature Legend
----------------
 h   - hammer-on
 p   - pull-off
 b   - bend
 pb  - pre-bend
 r   - bend release (if no number after the r, then release immediately)
 /\  - slide into or out of (from/to "nowhere")
 s   - legato slide
 S   - shift slide
 - natural harmonic
[n]  - artificial harmonic
n(n) - tapped harmonic
 ~   - vibrato
 tr  - trill
 T   - tap
 TP  - trem. picking
 PM  - palm muting
\n/  - tremolo bar dip; n = amount to dip
 \n  - tremolo bar down
 n/  - tremolo bar up
/n\  - tremolo bar inverted dip
 =   - hold bend; also acts as connecting device for hammers/pulls
 <> - volume swell (louder/softer)
 x   - on rhythm slash represents muted slash
 o   - on rhythm slash represents single note slash

Misc Legend
-----------
 |  - bar
||  - double bar
||o - repeat start
o|| - repeat end
*|  - double bar (ending)
 :  - bar (freetime)
 $  - Segno
 &  - Coda
Tempo markers -  = BPM(8/16=s8/s16), where s8 = swing 8ths, s16 = swing 16ths


Tap to rate this tab
# A B C D E F G H I J K L M N O P Q R S T U V W X Y Z