Song name
# A B C D E F G H I J K L M N O P Q R S T U V W X Y Z

Korn - Ever Be tab

Korn 
Ever Be
Untitled

Tuning ADGCFAD

For the beginning part of this song...you will need a whammy pedal. 

You will need to set your whammy to One Octave Down.

Whammy
X=Open

Intro
Guitar 1
|--------------------------------------|
|--------------------------------------|
|--------------------------------------|
|--------------------------------------|
|--------------------------------------|
|--------------------------------------|
|---5~~~---8~8~~~------3~~~---6~6~~~---| 
             XXXX               XXXX      

Verse
Guitar 1
|---------------------|
|---------------------|
|---------------------|
|---------------------|
|---------------------|
|---------------------|
|-5~~~8-------3~~~6---|

Guitar 2
|-------------------------------------------------|
|--12-12-12-12-12-13-13-13-13-13------------------|
|--------------------------------14-14-14-14------|
|-------------------------------------------------|
|-------------------------------------------------|
|-------------------------------------------------|
|-------------------------------------------------|

Chorus
Both Guitars
"You're all thats wrong..."
|-------------------|
|-------------------|
|-------------------|
|-------------------|
|-------------------|
|------7-7----7-6---|
|----5--5----5------|

Guitar 1
"Ya thats all that you will ever be"
|---------------------|
|---------------------|
|---------------------|
|---5---7---9---12----|
|---5---7---9---12----|
|---3---5---7---10----|
|---------------------|

|-----------|
|-----------|
|-----------|
|-----------|
|---7~~~----|
|---7~~~----|
|---5~~~----|

Guitar 2
|---------------------|
|---------------------|
|--16---18---19---21--|
|---X----X----X----X--|
|--14---16---17---19--|
|---------------------|
|---------------------|

|--------|
|--------|
|--24~~~-|
|---X~~~-|
|--22~~~-|
|--------|
|--------|

Verse

Chorus

Breakdown
Both Guitars
|----------------------------|
|----------------------------|
|----------------------------|
|----------------------------|
|----------------------------|
|----------------------------|
|----5-6-5-4-5-4-3-4-3-2-3-2-|

|-------------------------|
|-------------------------|
|-------------------------|
|-------------------------|
|-------------------------|
|-------------------------|
|-6-7-6-5-6-5-4-5-4-3-4-3-|

|------------------------------------------------|
|------------------------------------------------|
|------------------------------------------------|
|------------------------------------------------|
|-------------------------------------------3~~~-|
|-------------------------------------------3~~~-|
|-8-9-8-7-8-7-6-7-6-5-6-5-4-5-4-3-4-3-2-3-2-1~~~-|

Interlude
Both Guitars
"It must be hard to be you..."
|-----------------------------|
|-----------------------------|
|-----------------------------|
|-----------------------------|
|--7-7-7-7--5-5-5-5--3-3-3-3--|
|--7-7-7-7--5-5-5-5--3-3-3-3--|
|--5-5-5-5--3-3-3-3--1-1-1-1--|

Chorus

Outro
Both Guitars
|-------------------------------------------|
|-------------------------------------------|
|-------------------------------------------|
|--14-13-14---16-15-16---17-16-17-19-17-16--|
|---X--X--X----X--X--X----X--X--X--X--X--X--|
|--12-11-12---14-13-14---15-14-15-17-15-14--|
|-------------------------------------------|

|-----------|
|-----------|
|-----------|
|-----------|
|---7~~~----|
|---7~~~----|
|---5~~~----|

This song took me a long fricken time to tab...so please rate it.
Tap to rate this tab
# A B C D E F G H I J K L M N O P Q R S T U V W X Y Z