Song name
# A B C D E F G H I J K L M N O P Q R S T U V W X Y Z

Kourosh Yaghmaei - Gole Yakh chords

Intro Tab (Play at the very beginning)
e  -- 12 -- 12 --- 12 -- 12 --- 12 -- 12 --- 10 -- ----------------------------------------|
B  ---------------------------------------------------13 -- 12  10 --- 10 -----10---------|
G  --------------------------------------------------------------------------- 12 ---- 12--|
D  ----------------------------------------------------------------------------------------|
E  ----------------------------------------------------------------------------------------|

e  -------------------------------------------------------------------------------------------|
B  -------------------------------------------------------------------------------------------|
G  -------------------------------------------------------------------------------------------|
D  --9 -- 9 --9-------------------------------------------------------------------------------|
E  -------------------------------------------------------------------------------------------|(2x)

Intro Tab on the Repeat:
e|--------------------------------------------------------------------------------------|
B|--13--13--13--13--13--13--13--15--15--13--15--12--12--10--12--17--15/13\15/13--13--12-|
G|--------------------------------------------------------------------------------------|
D|--------------------------------------------------------------------------------------|
A|--------------------------------------------------------------------------------------|
E|--------------------------------------------------------------------------------------|

e|------------8--8--8--8--8--8--8--10--10--8--10--7--7--5--7---------------------------------|
B|--12/10\12---------------------------------------------------------------------------------|
G|------------------------------------------------------------7\9/7--5--5--4--5--4--4--2--4--|
D|-------------------------------------------------------------------------------------------|
A|-------------------------------------------------------------------------------------------|
E|-------------------------------------------------------------------------------------------|


Am                     Em                  Dm          Am
Gham miyoone do ta chashmoone ghashanget,     loone kardeh
Am                  Em     Dm            Am
Shab too moohaye siyahet,      khoone kardeh
E          E7        F    Dm           E
Do ta chasmooneh siyahet,    mesle shabhaye mane
E    E7           F    Dm           E
Siyahiaye do cheshmet,    mesle ghamhaye mane

Am            Em          Am           Bb            Am
vaghti  boghz az mojeham payin miyad,     baroon mishe
Am        G          F            E
sayle ghamha abadimo   viroone karde
Am        Em          Am          Bb         Am
vaghti ba man mimooni tanhayimo,     bad mibare
Am         G           F             E
do ta cheshmam baroone,  shaboone karde

E7                    F
bahar az dastaye man par zado raft
G         F             E
gole yakh tooye delam javooneh karde
E7                   F
Too otagham daram az tanhayi atish migiram
G          F            E
ey shokoofeh tooye in zamooneh karde

Am         F            Dm            E
chi bekhoonam, javoonim raft ke sedam rafteh dige
G         F             E           E7
gole yakh tooye delam javooneh kardeh     (2x)


Outro Tab (Play after finishing the repeat):

e|--------------------------------------------------------------------------------------|
B|--13--13--13--13--13--13--13--15--15--13--15--12--12--10--12--17--15/13\15/13--13--12-|
G|--------------------------------------------------------------------------------------|
D|--------------------------------------------------------------------------------------|
A|--------------------------------------------------------------------------------------|
E|--------------------------------------------------------------------------------------|

e|------------8--8--8--8--8--8--8--10--10--8--10--7--7--5--7---------------------------------|
B|--12/10\12---------------------------------------------------------------------------------|
G|------------------------------------------------------------7\9/7--5--5--4--5--4--4--2--4--|
D|-------------------------------------------------------------------------------------------|
A|-------------------------------------------------------------------------------------------|
E|-------------------------------------------------------------------------------------------|(2x)




http://www.kourosh-yaghmaei.com/

https://www.facebook.com/pages/Kourosh-Yaghmaei/173028862753371
Tap to rate this tab
# A B C D E F G H I J K L M N O P Q R S T U V W X Y Z