Song name
# A B C D E F G H I J K L M N O P Q R S T U V W X Y Z

Kreator - Phobia tab

#----------------------------------PLEASE NOTE---------------------------------#
#This file is the author's own work and represents their interpretation of the #
#song. You may only use this file for private study, scholarship, or research. #
#------------------------------------------------------------------------------#

PHOBIA
As recorded by Kreator
(From the 1997 Album OUTCAST)

Transcribed by Emre "EmAr" Akpolat
	

Words and Music by Kreator

Gtr I (D A D G B E) - 'Untitled'
Gtr II (D A D G B E) - 'Untitled'

   Intro
    Q=190
    D         D           D         D BbD Bb5
   4/4
    Gtr I
    PM------------------------------|   PM
    S S E E E S S E E E   S S E E E E E E E  4x
||----------------------|--------------------||
||o---------------------|-------------------o||
||----------------------|--------------------||
||--0-0-0-0-0-0-0-0-0-0-|-0-0-0-0-0-0-3-0-3--||
||o---------------------|-------------1---1-o||
||----------------------|--------------------||
|
|   Gtr II
|   h         h           h         h        4x
||----------------------|--------------------||
||o---------------------|-------------------o||
||----------------------|--------------------||
||----------------------|--------------------||
||o---------------------|-------------------o||
||--0---------0---------|-0---------0--------||


    D                               D BbD Bb5
    Gtrs I, II
    PM------------------------------|   PM
    S S E E E S S E E E   S S E E E E E E E  3x
||----------------------|--------------------||
||o---------------------|-------------------o||
||----------------------|--------------------||
||----------------------|-------------3---3--||
||o---------------------|-------------1---1-o||
||--0-0-0-0-0-0-0-0-0-0-|-0-0-0-0-0-0---0----||


  E5      F5E5 G5                F5E5
  E E E E E Q  E   +E  E E E E E E E
|----------------|-------------------|
|----------------|-------------------|
|----------------|-------------------|
|----------------|-------------------|
|-2-2-2-2-3-2--5-|-(5)-5-5-5-5-5-3-2-|
|-2-2-2-2-3-2--5-|-(5)-5-5-5-5-5-3-2-|


  $
  D5                 D BbD Bb5 D5
  E H..         H    E E E E   E H..
|-------------|--------------|-------------|
|-------------|--------------|-------------|
|-------------|--------------|-------------|
|-------------|--------3---3-|-------------|
|-0-----------|--------1---1-|-0-----------|
|-0-----------|------0---0---|-0-----------|


         BbD Bb5 D5                 D BbD Bb5
  H    E E E E   E H..         H    E E E E
|--------------|-------------|---------------|
|--------------|-------------|---------------|
|--------------|-------------|---------------|
|--------3---3-|-------------|--------3---3--|
|--------1---1-|-0-----------|--------1---1--|
|----------0---|-0-----------|------0---0----|


  E5      F5E5 G5                F5E5
  E E E E E Q  E   +E  E E E E E E E
|----------------|-------------------|
|----------------|-------------------|
|----------------|-------------------|
|----------------|-------------------|
|-2-2-2-2-3-2--5-|-(5)-5-5-5-5-5-3-2-|
|-2-2-2-2-3-2--5-|-(5)-5-5-5-5-5-3-2-|


    D                               D BbD Bb5
    PM------------------------------|   PM
    S S E E E S S E E E   S S E E E E E E E   3x
||----------------------|---------------------||
||o---------------------|--------------------o||
||----------------------|---------------------||
||----------------------|-------------3---3---||
||o---------------------|-------------1---1--o||
||--0-0-0-0-0-0-0-0-0-0-|-0-0-0-0-0-0---0-----||


                                        Pre-Chorus
  E5      F5E5 G5                F5E5    D     A5 Bb5
                                         PM--|
  E E E E E Q  E   +E  E E E E E E E     E E E q  Q.
|----------------|-------------------||----------------|
|----------------|-------------------||o---------------|
|----------------|-------------------||----------------|
|----------------|-------------------||--------2--3----|
|-2-2-2-2-3-2--5-|-(5)-5-5-5-5-5-3-2-||o-------0--1----|
|-2-2-2-2-3-2--5-|-(5)-5-5-5-5-5-3-2-||--0-0-0---------|


               D     A5 Bb5E5
               PM--|
  +W           E E E q  q  E   +W
|------------|---------------|---------||
|------------|---------------|--------o||
|------------|---------------|---------||
|-(3)--------|-------2--3----|---------||
|-(1)--------|-------0--1--2-|-(2)----o||
|------------|-0-0-0-------2-|-(2)-----||


   Chorus
    D5            A5            G#5                 F#5G#5
    Gtr I
    Q  Q  Q  Q    Q  Q  Q  Q    Q  H.        +H     Q  Q
||--5--5--5--5--|-5--5--5--5--|-5--4-------|-(4)----2--4--|
||o-------------|-------------|------------|--------------|
||--------------|-------------|------------|--------------|
||--------------|-------------|------------|--------------|
||o-------------|-------------|------------|--------------|
||--------------|-------------|------------|--------------|
|
|   Gtr II
|   W             W             W            +H     Q  Q
||--------------|-------------|------------|--------------|
||o-------------|-------------|------------|--------------|
||--------------|-------------|------------|--------------|
||--0-----------|-7-----------|-6----------|-(6)----4--6--|
||o-0-----------|-7-----------|-6----------|-(6)----4--6--|
||--0-----------|-7-----------|-6----------|-(6)----4--6--|


                                            D.S.
  A5         B5   A5     G#5               F#5G#5
                                     >
  W          H    H      W          +W
|-5--------|-7S===5----|-4--------|-(4)--------------||
|----------|-----------|----------|-----------------o||
|----------|-----------|----------|------------------||
|----------|-----------|----------|------------------||
|----------|-----------|----------|-----------------o||
|----------|-----------|----------|------------------||
|
| W          H    H      W          +H     Q  Q
|----------|-----------|----------|------------------||
|----------|-----------|----------|-----------------o||
|----------|-----------|----------|------------------||
|-7--------|-9----7----|-6--------|-(6)----4--6------||
|-7--------|-9----7----|-6--------|-(6)----4--6-----o||
|-7--------|-9----7----|-6--------|-(6)----4--6------||


    D                               D BbD Bb5
    Gtr I
    PM------------------------------|   PM
    S S E E E S S E E E   S S E E E E E E E  4x
||----------------------|--------------------||
||o---------------------|-------------------o||
||----------------------|--------------------||
||----------------------|-------------3---3--||
||o---------------------|-------------1---1-o||
||--0-0-0-0-0-0-0-0-0-0-|-0-0-0-0-0-0---0----||


    D                               D BbD Bb5
    Gtrs I, II
    PM------------------------------|   PM
    S S E E E S S E E E   S S E E E E E E E  3x
||----------------------|--------------------||
||o---------------------|-------------------o||
||----------------------|--------------------||
||----------------------|-------------3---3--||
||o---------------------|-------------1---1-o||
||--0-0-0-0-0-0-0-0-0-0-|-0-0-0-0-0-0---0----||


  E5      F5E5 G5      G5        F5E5
  E E E E E Q  E   +E  E E E E E E E
|----------------|-------------------|
|----------------|-------------------|
|----------------|-------------------|
|----------------|-------------------|
|-2-2-2-2-3-2--5-|-(5)-5-5-5-5-5-3-2-|
|-2-2-2-2-3-2--5-|-(5)-5-5-5-5-5-3-2-|


    $$
    D                               D BbD Bb5
    PM------------------------------|   PM
    S S E E E S S E E E   S S E E E E E E E  3x
||----------------------|--------------------||
||o---------------------|-------------------o||
||----------------------|--------------------||
||----------------------|-------------3---3--||
||o---------------------|-------------1---1-o||
||--0-0-0-0-0-0-0-0-0-0-|-0-0-0-0-0-0---0----||


                               D.S.S.
  E5      F5E5 G5                F5E5
  E E E E E Q  E   +E  E E E E E E E
|----------------|---------------------|
|----------------|---------------------|
|----------------|---------------------|
|----------------|---------------------|
|-2-2-2-2-3-2--5-|-(5)-5-5-5-5-5-3-2---|
|-2-2-2-2-3-2--5-|-(5)-5-5-5-5-5-3-2---|


   Pre-Chorus
    D     A5 Bb5                 D     A5 Bb5E5
    PM--|                        PM--|
    E E E q  Q.     +W           E E E q  q  E   +W
||----------------|------------|---------------|---------||
||o---------------|------------|---------------|--------o||
||----------------|------------|---------------|---------||
||--------2--3----|-(3)--------|-------2--3----|---------||
||o-------0--1----|-(1)--------|-------0--1--2-|-(2)----o||
||--0-0-0---------|------------|-0-0-0-------2-|-(2)-----||


   Chorus
     D5            A5            G#5                 F#5G#5
    Gtr I
     Q  Q  Q  Q    Q  Q  Q  Q    Q  H.        +H     Q  Q
||---5--5--5--5--|-5--5--5--5--|-5--4-------|-(4)----2--4--|
||o--------------|-------------|------------|--------------|
||---------------|-------------|------------|--------------|
||---------------|-------------|------------|--------------|
||o--------------|-------------|------------|--------------|
||---------------|-------------|------------|--------------|
|
|   Gtr II
|    W             W             W            +H     Q  Q
||---------------|-------------|------------|--------------|
||o--------------|-------------|------------|--------------|
||---------------|-------------|------------|--------------|
||---0-----------|-7-----------|-6----------|-(6)----4--6--|
||o--0-----------|-7-----------|-6----------|-(6)----4--6--|
||---0-----------|-7-----------|-6----------|-(6)----4--6--|


  A5         B5   A5     G#5               F#5G#5
                                     >
  W          H    H      W          +W
|-5--------|-7S===5----|-4--------|-(4)-------------||
|----------|-----------|----------|----------------o||
|----------|-----------|----------|-----------------||
|----------|-----------|----------|-----------------||
|----------|-----------|----------|----------------o||
|----------|-----------|----------|-----------------||
|
| W          H    H      W          +H     Q  Q
|----------|-----------|----------|-----------------||
|----------|-----------|----------|----------------o||
|----------|-----------|----------|-----------------||
|-7--------|-9----7----|-6--------|-(6)----4--6-----||
|-7--------|-9----7----|-6--------|-(6)----4--6----o||
|-7--------|-9----7----|-6--------|-(6)----4--6-----||


   Outro
    D                               D BbD Bb5
    PM------------------------------|   PM
    S S E E E S S E E E   S S E E E E E E E  3x
||----------------------|--------------------||
||o---------------------|-------------------o||
||----------------------|--------------------||
||----------------------|-------------3---3--||
||o---------------------|-------------1---1-o||
||--0-0-0-0-0-0-0-0-0-0-|-0-0-0-0-0-0---0----||


  E5      F5E5 G5                F5E5
  E E E E E Q  E   +E  E E E E E E E
|----------------|-------------------*|
|----------------|-------------------*|
|----------------|-------------------*|
|----------------|-------------------*|
|-2-2-2-2-3-2--5-|-(5)-5-5-5-5-5-3-2-*|
|-2-2-2-2-3-2--5-|-(5)-5-5-5-5-5-3-2-*|



Duration Legend
---------------
W - whole; H - half; Q - quarter; E - 8th; S - 16th; T - 32nd; X - 64th; a - acciaccatura
+ - note tied to previous; . - note dotted; .. - note double dotted
Uncapitalized letters represent notes that are staccato (1/2 duration)
Irregular groupings are notated above the duration line
Duration letters will always appear directly above the note/fret number it represents the
duration for.  Duration letters with no fret number below them represent rests.  Multi-
bar rests are notated in the form Wxn, where n is the number of bars to rest for.  Low
melody durations appear below the staff

Tablature Legend
----------------
 h   - hammer-on
 p   - pull-off
 b   - bend
 pb  - pre-bend
 r   - bend release (if no number after the r, then release immediately)
 /\  - slide into or out of (from/to "nowhere")
 s   - legato slide
 S   - shift slide
 - natural harmonic
[n]  - artificial harmonic
n(n) - tapped harmonic
 ~   - vibrato
 tr  - trill
 T   - tap
 TP  - trem. picking
 PM  - palm muting
\n/  - tremolo bar dip; n = amount to dip
 \n  - tremolo bar down
 n/  - tremolo bar up
/n\  - tremolo bar inverted dip
 =   - hold bend; also acts as connecting device for hammers/pulls
 <> - volume swell (louder/softer)
 x   - on rhythm slash represents muted slash
 o   - on rhythm slash represents single note slash

Misc Legend
-----------
 |  - bar
||  - double bar
||o - repeat start
o|| - repeat end
*|  - double bar (ending)
 :  - bar (freetime)
 $  - Segno
 &  - Coda
Tempo markers -  = BPM(8/16=s8/s16), where s8 = swing 8ths, s16 = swing 16ths

Tap to rate this tab
 
# A B C D E F G H I J K L M N O P Q R S T U V W X Y Z