Song name
# A B C D E F G H I J K L M N O P Q R S T U V W X Y Z

Kristian Stanfill - The Stand tab

Kristian Stanfill
The Stand
From "Passion: Awakening"


Capo 4 (Hillsong plays it capo 2)

Intro:
G

Verse 1:
G                          C
You stood before creation, eternity in Your hand
G/B                     Em                   C
You spoke the earth into motion, My soul now to stand

Verse 2:
You stood before my failure and carried the cross for my shame
My sin weighed upon Your shoulders, My soul now to stand


Chorus 1:
                 C     Am                    Em
So what can I say         And what could I do
                    C       D           Em
But offer this heart O God      Completely to You 
        

Verse 3:
So I'll walk upon salvation, Your Spirit alive in me
This life to declare Your promise, My soul now to stand


Chorus x2, then end with :
               C  G  D  Em
Completely to You 

Interlude: C - G - D - Em

Outro:
C         G         D             Em              C
So I'll stand  With arms high and heart abandoned
   G          D       Em        C
In awe of the One who gave it all
       G        D           Em
I'll stand  My soul Lord to You surrendered
C       G        D  
All I am is Yours


Chorus (relative to capo)
Loosely pick around these patterns
e|---------------------------------------------------------------------|
B|--5---7---8---7------------------------------------------------------|
G|--0---0---0---0------------------------------------------------------|
D|--5---7---9---7------------------------------------------------------|
A|---------------------------------------------------------------------|
E|---------------------------------------------------------------------|

Interlude/Outro (Stanfill version, relative to capo)
e|---------------------------------------------------------------------|
B|--15----15----14----14----12----12----15----14-----------------------|
G|-----14----14----14----14----14----14----14----14--------------------|
D|---------------------------------------------------------------------|
A|---------------------------------------------------------------------|
E|---------------------------------------------------------------------|


Chad Miller
http://www.freetoliveforyou.blogspot.com/
Tap to rate this tab
 
# A B C D E F G H I J K L M N O P Q R S T U V W X Y Z