Song name
# A B C D E F G H I J K L M N O P Q R S T U V W X Y Z

Kristin Hersh - Shake tab

This is a great song for acoustic guitar, fingerpicked or strummed.

SHAKE


chords:
   E  G  D  C
e--0--3--2--0--|
b--0--3--3--1--|
g--1--0--2--0--|
d--2--0--0--2--|
a--2--2-----3--|
e--0--3--------|

fingerpicking :

intro:

   (E)       (G)     (D)     (C)
e--------0---0-------2--------0---------|
b------0---0------------3---------------|
g--0h1-----------0--------2-------------|
d--------------0---0--------------------|
a-----------------------------3-3-2p0---|
e--0---------3------------------------0-|


   (E)       (G)     (D)     (C)
e--------0---0-------2--------0---|
b------0---0------------3---------|
g--0h1-----------0--------2-------|
d--------------0---0--------------|
a-----------------------------3---|
e--0---------3--------------------|

Verses can be fingerpicked or strummed like this:

   E        G        D        A
e------0--------3--------2--------0----|
b------0--------0--------3--------2----|
g----1---0----0---0----2---0----2---0--|
d--------------------0-----------------|
a-----------------------------0--------|
e--0--------3--------------------------|

   E          D        C            D
e--------0----2---2--------0----------2---2---2----|
b--------0--------3--------1p0--------3---3---3----|
g---h1-1---1----2---0----0-----0----2---2---2---0--|
d-------------0-------------------0----------------|
a----------------------3---------------------------|
e--0-----------------------------------------------|


E      G   D               E
i like you when i'm in the mood
A      D          D    E
as the crow flies i go too
       G       D       E
silver slivers in your eyes
        A           D
make it worth every lie
E      G     D            C
i ever told, they turn to gold
A            D
they kept me here
E            G    D             C
they kept me here on this battlefield
A  D


E      G   D               E
i find out what you're all about
       A              D
when i think to look around
D      E       G        D              E
i feel my toes curl halfway around the world
A         D
i'm sorry now
E             G     D           C
there's magic here, and magic's weird
A            D
look this is you

-Chorus-

E           G       D         C
head in the clouds, feet underground
    E                  G                  D             C
and when you shake the earth moves, we're gonna live forever
E           G       D         C
head in the clouds, feet underground
    E                  G                  D             C
and when you shake the earth moves, we're gonna live forever


E       G      D                E
strange angels made this planet glow
A              D
then kicked us out
D      E        G           D           E
i keep my nails dug into my half of the rug
A         D
I'm sorry now
E         G    D              C
i'm sorry now, you don't know how
A            D
look this is you
____________________________________________________

E           G       D         C
head in the clouds, feet underground
    E                  G                  D             C
and when you shake the earth moves, we're gonna live forever
E         G       D           C
head underground, we'll hang around
    E                 G            D                   C
and when we shake the earth moves, we're gonna live forever
_______________________________________________________

End fingerpick :

e-----------0--|
b-----------0--|
g-----------1--|
d-----------2--|
a--3-2p0----2--|
e--------0--0--|
Tap to rate this tab
# A B C D E F G H I J K L M N O P Q R S T U V W X Y Z