Song name
# A B C D E F G H I J K L M N O P Q R S T U V W X Y Z

Krokus - Eat The Rich tab

Artist: Krokus
Song: Eat The Rich
Album: Headhunter
Year: 1983

Best song ever!


Intro:
E----------------------------------------------------------------|
B------------------------------------------8--x------------------|
G--7--7-5-----5--------7--7-5-----5--------7--x--7---2---2---2---|
D--7--7-5--7--5--7-x---7--7-5--7--5--7-x---5--x--7---2---2---2---| Repeat 4x
A----------7-----7-x-----------7-----7-x---------5---0-3-0---0---|
E----------------------------------------------------------3-----|

The Chorus consists of easy powerchords, it's easy to hear and to play them.

Refrain:
E-----------------------------------------------|
B-----------------------------------------------|
G-----------------------------------------------|
D--7--(7)-7------------7--(7)-7-----------------|
A--7--(7)-7------------7--(7)-7-----------------|
E--5--(5)-5--5-5--5-5--5--(5)-5--5-5--5-5-------|


E---------------------------|
B--8--x---------------------|
G--7--x--7---2---2---2------|
D--5--x--7---2---2---2------|
A--------5---0-3-0---0------|
E------------------3--------|


Please rate.
Tap to rate this tab
# A B C D E F G H I J K L M N O P Q R S T U V W X Y Z