Song name
# A B C D E F G H I J K L M N O P Q R S T U V W X Y Z

Kryst The Conqueror - Spellbound tab

Tabbed by:Davey13
Email:bill_clinton_the_man@hotmail.co.uk

Tuning:standard

intro.
e|--------------------------|----------------------|----------------------|
B|--------------------------|----------------------|----------------------|
G|--------------------------|----------------------|----------------------|
D|--/\----------------------|----------------------|----------------------|
A|--/\9-99-9-7-6-9-99-9-7-6-|7-77-7-5-4-7-77-7-5-4-|5-55-5-3-2-5-55-5-3-2-|
E|0-/\7-77-------7-77-------|5-55-------5-55-------|3-33-------3-33-------|


e|------------------------|
B|------------------------|
G|------------------------|
D|------------------------|
A|--2-222222--444-4-444-4-|
E|--0-000000--222-2-222-2-|
              ppp   ppp

on second time play.

e|------------------------|
B|------------------------|
G|------------------------|
D|------------------------|
A|--22-22-22-22-2--5-4----|
E|--00-00-00-00-0--3-2----|

verse.

e|-----------------------------------|
B|-----------------------------------|
G|-----------------------------------|
D|-----------------------------------|
A|--2-22225/9-999-5/9-9999-5/9-9-----|
E|--0-00003/7-777-3/7-7777-3/7-7-5br-|
      pppp    ppp     pppp       *


Chorus.

e|-------------------------------------------------------------------------|
B|-------------------------------------------------------------------------|
G|-------------------------------------------------------------------------|
D|--------------------------------------------------------5-555555---------|
A|--9-999999-12-121212121212-7-777777/\-77777777-5-555555-3-333333-4-444444|
E|--7-777777-10-101010101010-5-555555/\-55555555-3-333333----------2-222222|
                                        pppppppp

e|----------------|
B|----------------|
G|----------------|
D|--0-420---------|
A|-------420------|
E|-----------4----|

then.

e|--------|
B|--------|
G|--------|
D|--------|
A|--5-4---|
E|--3-2---|


verse 2.


e|---------------------|
B|---------------------|
G|---------------------|
D|---------------------|
A|--2-222-----2-22-320-|
E|--0-000-0-3----------|
      ppp     *

then chorus.

solo 1.
for the people who know the misfits descending angel solo, its effectivly the same thing 
with a few alterations and timimg changes.

e|--------------------------------------------------|
B|--------------------------------------------------|
G|---2/9-9-11-12-12-11-9-11hp9---9-11hp9--9-11hp9-11|
D|----------------------------12--------11----------|
A|--------------------------------------------------|
E|--------------------------------------------------|


e|--------------------------------------------------|
B|---------------------------14h1514h1514h1514h15-14|
G|---9-11-12-10-12-13-11-13-------------------------|
D|--------------------------------------------------|
A|--------------------------------------------------|
E|--------------------------------------------------|

Solo 2.

e|--------------------------------------------------|
B|--------------------------------------------------|
G|---2/9-9-11-12-12-11-9-11hp9---9-11hp9--9-11hp9-11|
D|----------------------------12--------11----------|
A|--------------------------------------------------|
E|--------------------------------------------------|

e|----------------------------------------------------------------------|
B|----------------------------------------------------------------------|
G|---9-11-12-10-12-13-11-13---1514121412-1514121412-1514121412-14(Full)-|
D|----------------------------------------------------------------------|
A|----------------------------------------------------------------------|
E|----------------------------------------------------------------------|

e|-------------------------------------------------------------------------|
B|--------------------------------------------------2-3--2-3---5-4--5-4--5\|
G|--9-8-9-8-9-8-9-8--7-6-7-6-7-6-7-6--4-5-0-4-5-0--3----3-----5----5----5--|
D|-----9---9---9---9----7---7---7---7--------------------------------------|
A|-------------------------------------------------------------------------|
E|-------------------------------------------------------------------------|

dunno 3rd solo...improve is good!

right this sounds ok, havent got the last bit cos im not that
much of a musical whizz! buts the rest is ok
tapping bit:
             
e|----------------------------------------|
B|--19T-15p-12(X6)-20T-15p-12T-19p-15p-12-|
G|----------------------------------------|
D|----------------------------------------|
A|----------------------------------------|
E|----------------------------------------|

e|------------------------------------|
B|-17T-12r-9(X6)-18T-12r-9-17T-12r-9--|
G|------------------------------------|
D|------------------------------------|
A|------------------------------------|
E|------------------------------------|

e|-------------------------------------|--------------------------------|
B|--15T-10r-7(X6)-16T-10r-7-15T-10e-7--|-7-----7-----7-----7------------|
G|-------------------------------------|-9(11)-9(11)-9(11)-9(11)--12----|
D|-------------------------------------|--------------------------------|
A|-------------------------------------|--------------------------------|
E|-------------------------------------|--------------------------------|
                            (Full bend to sound like 11) Harmonic 12

e|-------------------|-------------------|----------------------------|
B|-------9-8-7-8hp-7-|-------7-6-5-6hp-7-|-------5-4-3--0hp2(X9)------|
G|-7-9-7-------------|-5-6-7-------------|-3-5-3----------------------|
D|-------------------|-------------------|----------------------------|
A|-------------------|-------------------|----------------------------|
E|-------------------|-------------------|----------------------------|

e|----------|---------|---------|--------------------------------------|
B|----------|---------|---------|------2-------------------------------|
G|-7-10-9-7-|-5-8-7-5-|-3-6-5-3-|-2-3-4--------------------------------|
D|----------|---------|---------|--------------------------------------|
A|----------|---------|---------|--------------------------------------|
E|----------|---------|---------|--------------------------------------|

dunno the last part improvise lol its follows the same pattern as this so.
ill add a timeline thing l8er

Tap to rate this tab
# A B C D E F G H I J K L M N O P Q R S T U V W X Y Z