Song name
# A B C D E F G H I J K L M N O P Q R S T U V W X Y Z

Ks Choice - God In My Bed tab

Ks Choice
God In My Bed
Standard Tuning, Capo 1st fret


Intro
e--------------------------------|
B-----1--------1--------1--------|
G-------0--------0--------0------|
D-3-3------2-2------0-0----------|
A-----------------------------3--|
E--------------------------------|

Verse
e-------------------------------------|
B-----1--------1--------1--------1----|
G-------0--------0--------0--------0--|
D-3-3------2-2------0-0------2-2------|
A-------------------------------------|
E-------------------------------------|

e-------------------------------------|
B-----1--------1--------1--------1----|
G-------0--------0--------0----0---0--|
D-3-3------2-2------0-0---------------|
A----------------------------3--------|
E-------------------------------------|

e-------------------------------------|
B-----1--------1--------1--------0101-|
G-------0--------0--------0----2------|
D-3-3------2-2------------------------|
A----------------------------0--------|
E-------------------3-3---------------|

e-------------------------------------|
B-----1--------1--------0--------1----|
G-------0--------0--------0--------0--|
D-3-3---------------------------------|
A----------3-3---------------3-3------|
E-------------------3-3---------------|

Outro
e--------------------------------|
B-----1--------1--------1--------|
G-------0--------0--------0------|
D-3-3------2-2------0-0----------|
A-----------------------------3--|
E--------------------------------|
Tap to rate this tab
 
# A B C D E F G H I J K L M N O P Q R S T U V W X Y Z