Song name
# A B C D E F G H I J K L M N O P Q R S T U V W X Y Z

Kubichek - Just Shut It Down tab

Help us improve GuitareTab! Take a short survey!
Band: Kubichek!
Song: Just Shut It Down
Album: Not Enough Night
Tabbed By: Charlie Wood
Tuning: Standard

The other tab just doesn't sound right to me so here is a more accurate one, please rate 
bare in mind this is my first tab so go easy! :)

INTRO 00:00-00:21
|------------------------------|
|----12(x8)--------------------|
|---------13(x8)-14(x8)--------|
|--------------------14(x8)----|
|------------------------------|
|------------------------------| x 4


Verse
"It's every other night it gets to this...
I'd like to see it happen, If only it would happen"
00:33
|------------------------------|
|------12-12-12-12-------------|
|------------------14-13-------|
|------------------------------|
|------------------------------|
|------------------------------| x 2

|----------------------------|
|------10--10--10---9--9--9--|
|----11--11--11----9--9--9---|
|----------------------------|
|----------------------------|
|----------------------------|


00:44
"There is nothing better than playing it safe..."


CHORUS
"You're seeing things through my eyes..>"
|------------------------------|
|----12(x8)--------------------|
|---------13(x8)-14(x8)--------|
|--------------------14(x8)----|
|------------------------------|
|------------------------------| x 4

VERSE
|------------------------------|
|------12-12-12-12-------------|
|------------------14-13-------|
|------------------------------|
|------------------------------|
|------------------------------| x 2

|----------------------------|
|------10--10--10---9--9--9--|
|----11--11--11----9--9--9---|
|----------------------------|
|----------------------------|
|----------------------------|

"It's every other night..."
|-------------------------|
|-------------------------|
|----8-9-9-9-9-9----------|
|-------------------------|
|-------------------------|
|-------------------------| x 2

|--------------------------------|
|--------------------------------|
|----11-11-11-11-11-11-11-9-8----|
|----------------------------8---|
|--------------------------------|
|--------------------------------|

Same riffs throughout.

Ending:
|-------------------------------------------------------------------------|
|--14(x32)--16(x22)--19(x8)--17(x20)--21(x8)--16(x8)--17(x4)--16(x4)--14--|
|-------------------------------------------------------------------------|
|-------------------------------------------------------------------------|
|-------------------------------------------------------------------------|
|-------------------------------------------------------------------------|

Pretty sure thats 100% correct but give me an e-mail if you think otherwise - 
peace out x
Related for Just Shut It Down tab