Song name
# A B C D E F G H I J K L M N O P Q R S T U V W X Y Z

Kumar Sanu - Tera Mera Pyar tab

I've also uploaded a video on youtube just with tabs.

http://www.youtube.com/watch?v=BEiFhV_7jxY

E|--------------------------------------------------------------------------|
B|------------6--5--6---------5---------------------------------5-----------|
G|---------7---------------------------------------9------------------------|
D|------7--------------5--5------5---7--7---10--9----9--------------5-------|
A|---5--------------------------------------------------7---7---------------|
E|--------------------------------------------------------------------------|
Repeat the first part twice


E|---------------------7--8--7---------------------------7--8---7-----------|
B|-----------6--5--6------------5-----------------------------------5-------|
G|--------7----------------------------------------9------------------------|
D|-----7---------------------------5--7--7--10--9----9-----------------5----|
A|--5-----------------------------------------------------------------------|
E|--------------------------------------------------------------------------|

E|---------------------------7---8---7------------5------------------------||
B|--------------6---5---6----------------5--------5------------------------||
G|----------7-------------------------------------5------------------------||
D|------7-----------------------------------5-----7------------------------||
A|---5--------------------------------------------7------------------------||
E|------------------------------------------------5------------------------||

Hope these tabs are correct!!
Tap to rate this tab
 
# A B C D E F G H I J K L M N O P Q R S T U V W X Y Z