Guitaretab - guitar tabs
Song name
# A B C D E F G H I J K L M N O P Q R S T U V W X Y Z

Kutless - Winds Of Change tab

Winds Of Change: Kutless

Tabbed by: Canadian eh?
Email:	canadianeh_1518@hotmail.com

Tuning: EADGBe

Intro
e|-----------------------------------------------------------------------|
B|-----------------------------------------------------------------------|
G|-----------------------------------------------------------------------|
D|-----------------------------------------------------------------------|
A|-----7------7----7----7-----7---7-----9-----9---9-----9-----9/11--9--7-|
E|--5-5---5-5----5---0-0---0-0---0---7-7---7-7---7---7-7---7-7-----------|

verse
e|-----------------------------------------------------------------------|
B|-----------------------------------------------------------------------|
G|-----------------------------------------------------------------------|
D|-----------------------------------------------------------------------|x3
A|-----7------7----7----7-----7---7-----9-----9---9-----9-----9/11--9--7-|
E|--5-5---5-5----5---0-0---0-0---0---7-7---7-7---7---7-7---7-7-----------|	

e|-----------------------------------------------------------------------|
B|-----------------------------------------------------------------------|
G|-----------------------------------------------------------------------|
D|-----------------------------------------------------------------------|
A|-----7------7-----7----7-----7---7-----9-----9---9-----9-----9---9-----|
E|--5-5---5-5----5---0-0---0-0---0---7-7---7-7---7---7-7---7-7---7-------|	

chorus
e|-----------------------------------------------------------------------|
B|-----------------------------------------------------------------------|
G|-----------------------------------------------------------------------|
D|--4-4-4-x-x-4-4--7-7-7-x-x-5-7--2-2-2-2-2-2-2-2--9-9-9-9-9-9-9-9-------|x2
A|--4-4-4-x-x-4-4--7-7-7-x-x-7-7--2-2-2-2-2-2-2-2--9-9-9-9-9-9-9-9-------|
E|--2-2-2-x-x-2-2--5-5-5-x-x-5-5--0-0-0-0-0-0-0-0--7-7-7-7-7-7-7-7-------|
  Theres some other notes where I put the xs but im not sure what they are
[ Tab from: http://www.guitaretab.com/k/kutless/144508.html ]
verse
e|-----------------------------------------------------------------------|
B|-----------------------------------------------------------------------|
G|-----------------------------------------------------------------------|
D|-----------------------------------------------------------------------|x3
A|-----7------7----7----7-----7---7-----9-----9---9-----9-----9/11--9--7-|
E|--5-5---5-5----5---0-0---0-0---0---7-7---7-7---7---7-7---7-7-----------|	

e|-----------------------------------------------------------------------|
B|-----------------------------------------------------------------------|
G|-----------------------------------------------------------------------|
D|-----------------------------------------------------------------------|
A|-----7------7-----7----7-----7---7-----9-----9---9-----9-----9---9-----|
E|--5-5---5-5----5---0-0---0-0---0---7-7---7-7---7---7-7---7-7---7-------|

chorus
e|-----------------------------------------------------------------------|
B|-----------------------------------------------------------------------|
G|-----------------------------------------------------------------------|
D|--4-4-4-x-x-4-4--7-7-7-x-x-5-7--2-2-2-2-2-2-2-2--9-9-9-9-9-9-9-9-------|x4
A|--4-4-4-x-x-4-4--7-7-7-x-x-7-7--2-2-2-2-2-2-2-2--9-9-9-9-9-9-9-9-------|
E|--2-2-2-x-x-2-2--5-5-5-x-x-5-5--0-0-0-0-0-0-0-0--7-7-7-7-7-7-7-7-------|
  If you could find out what the xs are post a comment telling me, thanks

bridge
e|-----------------------------------------------------------------------|
B|-----------------------------------------------------------------------|
G|-----------------------------------------------------------------------|
D|--2-2-2-2-2-2-2-2-4-4-4-4-4-4-4-4-9-9-x-x-x-9-9-9xxx-9-9-x-x-x-9-9-9xxx|x3
A|--2-2-2-2-2-2-2-2-4-4-4-4-4-4-4-4-9-9-x-x-x-9-9-9xxx-9-9-x-x-x-9-9-9xxx|
E|--0-0-0-0-0-0-0-0-2-2-2-2-2-2-2-2-7-7-x-x-x-7-7-7xxx-7-7-x-x-x-7-7-7xxx|
  Not too sure about this part but this is how I play it

chorus
e|-----------------------------------------------------------------------|
B|-----------------------------------------------------------------------|
G|-----------------------------------------------------------------------|
D|--4-4-4-x-x-4-4--7-7-7-x-x-7-7--2-2-2-2-2-2-2-2--9-9-9-9-9-9-9-9-------|x5
A|--4-4-4-x-x-4-4--7-7-7-x-x-7-7--2-2-2-2-2-2-2-2--9-9-9-9-9-9-9-9-------|
E|--2-2-2-x-x-2-2--5-5-5-x-x-5-5--0-0-0-0-0-0-0-0--7-7-7-7-7-7-7-7-------|

This is my first tab so please tell me what you think

| /  slide up
| \  slide down
| h  hammer-on
| p  pull-off
| ~  vibrato
| +  harmonic
| x  Mute note

Related for Winds Of Change tab