Song name
# A B C D E F G H I J K L M N O P Q R S T U V W X Y Z

Kutless - One Touch tab

----------------------------------------------------------------------------
			     One Touch - Kutless
----------------------------------------------------------------------------


tabbed by: Dare_u_2_move


Tuning:standard

e------------------------------------------------------------|
B------------------------------------------------------------|
G--------3-------------5---------------7---------------7-----|
D------5---5---------8---8----------10---10----------8---8---|
A----5-------5-----8-------8-----10---------10-----8-------8-|
E--3------------6-------------8-----------------6------------|
Tap to rate this tab
# A B C D E F G H I J K L M N O P Q R S T U V W X Y Z