Song name
# A B C D E F G H I J K L M N O P Q R S T U V W X Y Z

Kutless - Need tab

                                                                Need - Kutless
 
Tabbed by: oogah33
Email: oogah3@live.ca

Tuning: Standard (EADGBe)

Verse:
e|---------------------------------------------------------------------------|
B|---------------------------------------------------------------------------|
G|---------------------------------------------------------------------------|
D|---------------------------------------------------------------------------|
A|---------------------------------------------------------------------------|
E|-5-5-5-5-5-5-5-5-5-5-5-5-5-5-5-5-3-3-3-3-3-3-3-3-3-3-3-3-3-3-3-3-----------|
   * * * * * * * * * * * * * * * * * * * * * * * * * * * * * * * *
e|---------------------------------------------------------------------------|
B|---------------------------------------------------------------------------|
G|---------------------------------------------------------------------------|
D|---------------------------------------------------------------------------|
A|---------------------------------------------------------------------------|
E|-2-2-2-2-2-2-2-2-2-2-2-2-2-2-2-2-1-1-1-1-1-1-1-1-1-1-1-1-1-1-1-1-----------|
   * * * * * * * * * * * * * * * * * * * * * * * * * * * * * * * *

e|---------------------------------------------------------------------------|
B|---------------------------------------------------------------------------|
G|---------------------------------------------------------------------------|
D|---------------------------------------------------------------------------|
A|---------------------------------------------------------------------------|
E|-5-5-5-5-5-5-5-5-5-5-5-5-5-5-5-5-3-3-3-3-3-3-3-3-3-3-3-3-3-3-3-3-----------|
     * * * * * * * * * * * *   *   * * * * * * * * * * * * *   *  

e|---------------------------------------------------------------------------|
B|---------------------------------------------------------------------------|
G|---------------------------------7b8---------------------------------------|
D|---------------------------------------------------------------------------|
A|---------------------------------------------------------------------------|
E|-2-2-2-2-2-2-2-2-2-2-2-2-2-2-2-2-1-----------------------------------------|
   * * * * * * * * * * * * * * * * 

Chorus: (Lead) x2
e|---------------------------------------------------------------------------|
B|--------------13--------------------------------13-------------------------|
G|---14-14p12h14--14p12------------12--14-14p12h14--14p12--12b13-------------|
D|----------------------14-14-14-14------------------------------------------|
A|---------------------------------------------------------------------------|
E|---------------------------------------------------------------------------|

e|---------------------------------------------------------------------------|
B|---------------------------------------------------------------------------|
G|---14---12-----------------------------------------------------------------|
D|-------------14----12------14---12-----------------------------------------|
A|-----------------------12--------------------------------------------------|
E|---------------------------------------------------------------------------|

Chorus: (Rhythm) - Strum Accordingly
e|---------------------------------------------------------------------------|
B|---------------------------------------------------------------------------|
G|---2-----------------5-----------------------------------------------------|
D|---2-----------------5----------------3---------------5--------------------|
A|---0-----------------3----------------3---------------5--------------------|
E|--------------------------------------1---------------3--------------------| x2

Post Chorus:
e|---------------------------------------------------------------------------|
B|---------------------------------------------------------------------------|
G|---------------------------------------------------------------------------|
D|------------7-7-7-7---------7---7\-----------------------------------------|
A|---------------------------------------------------------------------------|
E|----5-5-5-5-----------5-5-5-----5\-----------------------------------------|

Verse 2:
e|---------------------------------------------------------------------------|
B|---------------------------------------------------------------------------|
G|---------------------------------------------------------------------------|
D|---------------------------------------------------------------------------|
A|---------------------------------------------------------------------------|
E|-5-5-5-5-5-5-5-5-5-5-5-5-5-5-5-5---3-3-3-3-3-3-3-3-3-3-3-3-3-3-3-----------|
   * * * * * * * * * * * * * * *       * * * * * * * * * * * * *
e|---------------------------------------------------------------------------|
B|---------------------------------------------------------------------------|
G|---------------------------------------------------------------------------|
D|---------------------------------------------------------------------------|
A|---------------------------------------------------------------------------|
E|---2-2-2-2-2-2-2-2-2-2-2-2-2-2-2-1-1-1-1-1-1-1-1-1-1-1-1-1-1-1-1-----------|
     * * * * * * * * * * * * * *   * * * * * * * * * * * * *   *

e|---------------------------------------------------------------------------|
B|---------------------------------------------------------------------------|
G|---------------------------------------------------------------------------|
D|---------------------------------------------------------------------------|
A|-------7-------7-------7---7---7---------5-------5-------5-------5---------|
E|-5-5-5-5-5-5-5-5-5-5-5-5-5-5-5-5---3-3-3-3-3-3-3-3-3-3-3-3-3-3-3-3----------|
   * * *   * * *   * * *   *   *     * * *   * * *   * * *   *   * 

e|---------------------------------------------------------------------------|
B|---------------------------------------------------------------------------|
G|---------------------------------------------------------------------------|
D|---------------------------------------------------------------------------|
A|---------4-------4-------4-----4---4---------------------------------------|
E|---2-2-2-2-2-2-2-2-2-2-2-2-2-2-2-2-2-1-1-1-1-1-1-1-1-1-1-1-2-2-2-2-3-3-3-3-|
     * * *   * * *   * * *   * *   *   * * * * * * * * * * *   


Chorus: (Lead) x2
e|---------------------------------------------------------------------------|
B|--------------13--------------------------------13-------------------------|
G|---14-14p12h14--14p12------------12--14-14p12h14--14p12--12b13-------------|
D|----------------------14-14-14-14------------------------------------------|
A|---------------------------------------------------------------------------|
E|---------------------------------------------------------------------------|

e|---------------------------------------------------------------------------|
B|---------------------------------------------------------------------------|
G|---14---12-----------------------------------------------------------------|
D|-------------14----12------14---12-----------------------------------------|
A|-----------------------12--------------------------------------------------|
E|---------------------------------------------------------------------------|

Chorus: (Rhythm)
e|---------------------------------------------------------------------------|
B|---------------------------------------------------------------------------|
G|---2-----------------5-----------------------------------------------------|
D|---2-----------------5----------------3---------------5--------------------|
A|---0-----------------3----------------3---------------5--------------------|
E|--------------------------------------1---------------3--------------------| x2


Bridge: (Guitar 1)
e|---------------------------------------------------------------------------|
B|---------------------------------------------------------------------------|
G|---------------------------------------------------------------------------|
D|---------------------------------------------------------------------------|
A|---------------------------------------------------------------------------|
E|-1-1-1-1-1-1-1-1-3-3-3-3-3-3-3-3-5-5-5-5-5-5-5-5-5-5-5-5-5-5-5-5-----------| x6
   * * * * * * * * * * * * * * * * * * * * * * * * * * * * * * * *

Bridge: (Guitar 2)
e|---------------------------------------------------------------------------|
B|---------------------------------------------------------------------------|
G|-----0--------2-------------2----0------------0-----------------2---0------|
D|-----------------0-------------------2-----------0-----3--0--------------2-|
A|------------------------0---------------------------1---------0------------|
E|--1--------3-------------------------------1-------------------------------| x3


e|---------------------------------------------------------------------------|
B|---------------------------------------------------------------------------|
G|--2-2-2-2-2-2-2-2-2-2-2-2-2-2-2-2------------------------------------------|
D|---------------------------------------------------------------------------|
A|--0-0-0-0-0-0-0-0-0-0-0-0-0-0-0-0------------------------------------------|
E|---------------------------------------------------------------------------| x3

Solo: (Lead)
e|---------------------------------------------------------------------------|
B|---5------------5-------------5----5---------------------------------------|
G|---5------------5-------------7b9--7b9--7--5-------------------------------|
D|------7--5--7------7--5--7--------------------7--5--7----------------------|
A|---------------------------------------------------------------------------|
E|---------------------------------------------------------------------------|

e|---------------------------------------------------------------------------|
B|---5------------5----------------------------------------------------------|
G|---5------------5-----------5-5-5-7-7-7-7-7-7b8-7b9------------------------|
D|------7--5--7------7--5--7-------------------------------------------------|
A|---------------------------------------------------------------------------|
E|---------------------------------------------------------------------------|

e|----------------------------------12---------------------------------------|
B|--13-------------13---------------15b17---15-13----------------------------|
G|-----14--12--14-----14--12--14------------------14--12--14-----------------|
D|---------------------------------------------------------------------------|
A|---------------------------------------------------------------------------|
E|---------------------------------------------------------------------------|

e|---------------------------------------------------------------------------|
B|---5------------5----------------------------------------------------------|
G|---5------------5----------------------------5-----------------------------|
D|------7--5--7------7--5--7---------------------7--5--7---------------------|
A|-----------------------------0-0-0-0-0-0-0-0-------------------------------|
E|---------------------------------------------------------------------------|

Solo: Rhythm (This part is played during the second half)
e|---------------------------------------------------------------------------|
B|---------------------------------------------------------------------------|
G|---------------------------------------------------------------------------|
D|---10----------------------------------------------------------------------|
A|------10--12--10-----------------------------------------------------------|
E|---------------------------------------------------------------------------| x12


Chorus: (Lead) x2
e|---------------------------------------------------------------------------|
B|--------------13--------------------------------13-------------------------|
G|---14-14p12h14--14p12------------12--14-14p12h14--14p12--12b13-------------|
D|----------------------14-14-14-14------------------------------------------|
A|---------------------------------------------------------------------------|
E|---------------------------------------------------------------------------|

e|---------------------------------------------------------------------------|
B|---------------------------------------------------------------------------|
G|---14---12-----------------------------------------------------------------|
D|-------------14----12------14---12-----------------------------------------|
A|-----------------------12--------------------------------------------------|
E|---------------------------------------------------------------------------|

Chorus: (Rhythm) 
e|---------------------------------------------------------------------------|
B|---------------------------------------------------------------------------|
G|---2-----------------5-----------------------------------------------------|
D|---2-----------------5----------------3---------------5--------------------|
A|---0-----------------3----------------3---------------5--------------------|
E|--------------------------------------1---------------3--------------------| x2

Outro: (x4)
e|---------------------------------------------------------------------------|
B|---------------------------------------------------------------------------|
G|---------------------------------------------------------------------------|
D|---------------10---------------------10----------------------10-----------|
A|--12--12-10-12----12-10---12--12-10-12---12-10----12--12-10-12----12-10----|
E|---------------------------------------------------------------------------|

e|---------------------------------------------------------------------------|
B|---------------------------------------------------------------------------|
G|---------------------9------------------------------------------------------|
D|---------------10-12-------------------------------------------------------|
A|--12--12-10-12-------------------------------------------------------------|
E|---------------------------------------------------------------------------|

************************************

| /   slide up
| \   slide down
| h   hammer-on
| p   pull-off
| ~   vibrato
| +   harmonic
| x   Mute note
| b   Bend
| pb  Pre-bend
| br  Bend release
| pbr Pre-bend release
| brb Bend release bend
| *   Palm mute
************************************
Tap to rate this tab
# A B C D E F G H I J K L M N O P Q R S T U V W X Y Z