Song name
# A B C D E F G H I J K L M N O P Q R S T U V W X Y Z

Kvelertak - Kvelertak tab

(/) Slide Up (v) Vibrato

Chord progression, modify as needed for the rest of the song

E|----------------------------------------------|
B|----------------------------------------------|
G|----------------7--7-------------------7--7---|
D|--9----9--9--9--7--7--5--5----5--5--5--7--7---|
A|--9----9--9--9--5--5--5--5----5--5--5--5--5---|
E|--7----7--7--7--------3--3----3--3--3---------|

------------------------------------------------|
------------------------------------------------|
--------------------7--7----------------7----9--|
---7--7----7--7--7--7--7--5--5----5--5--7----9--|  repeat from start
---7--7----7--7--7--5--5--5--5----5--5--5----7--|
---5--5----5--5--5--------3--3----3--3----------|



Solo over chords

E|---------------------------------------------|
B|---------------------------------------------|
G|---------------------------------------------|
D|-----------7--7--7/9v-----------7--9--9/11v--|
A|------7/9-----------------7/9----------------|
E|--10------------------10---------------------|

-----------------------------------------------|
-----------------------------------------------|
-----------------------------------------------|
----------7-----9/12--9--7--9------------------|
-7--7/9-----9------------------9--7--9--10--9v-|
-----------------------------------------------|
Tap to rate this tab
# A B C D E F G H I J K L M N O P Q R S T U V W X Y Z