Song name
# A B C D E F G H I J K L M N O P Q R S T U V W X Y Z

Kyo - White Trash tab

Bonjour. Voici la tablature pour White Trash de Kyo. Si vous avez des questions, n'hésitez pas à me 
les posez via cette adresse mail : slow-cheetah@hotmail.fr © leathers (c'est la première tablature 
que je réalise donc si vous avez des remarques à y faire n'hésitez pas non plus à me contacter).

Lead Guitar :

 |       |       |       |        
E|--------------------------------|
B|--7-------0-----7/--8/7-----0---|
G|--------------------------------|
D|--------------------------------|
A|--------------------------------|
E|--------------------------------| 

|       |       |       |        
|--------------------------------|
|0-----7-----0-------------------|
|--------------------------------|
|--------------------------------|
|--------------------------------|
|--------------------------------|
 
Rythmic Guitar : 


Verse x4


  |       |       |       |        
E|--------------------------------|
B|--------------------------------|
G|--------------------------------|
D|9---9---9---9---9---9---9---9---|
A|9---9---9---9---9---9---9---9---|
E|7---7---7---7---7---7---7---7---|
 
 |       |       |       |        
|--------------------------------|
|--------------------------------|
|--------------------------------|
|4---4---4---4---4---4---4---4---|
|4---4---4---4---4---4---4---4---|
|2---2---2---2---2---2---2---2---|
 
 |       |       |       |        
|--------------------------------|
|--------------------------------|
|--------------------------------|
|5---5---5---5---5---5---5---5---|
|5---5---5---5---5---5---5---5---|
|3---3---3---3---3---3---3---3---|
 
 |       |       |       |        
|--------------------------------|
|--------------------------------|
|--------------------------------|
|7---7---7---7---7---7---7---7---|
|7---7---7---7---7---7---7---7---|
|5---5---5---5---5---5---5---5---|

Chorus

 |       |       |       |        
E|--------------------------------|
B|--------------------------------|
G|--------------------------------|
D|9---9---9---9---9---9---9---9---|
A|9---9---9---9---9---9---9---9---|
E|7---7---7---7---7---7---7---7---|
 
 |       |       |       |        
|--------------------------------|
|--------------------------------|
|7---7---7---7---7---7---7---7---|
|7---7---7---7---7---7---7---7---|
|5---5---5---5---5---5---5---5---|
|--------------------------------|
 
 |       |       |       |        
|--------------------------------|
|--------------------------------|
|--------------------------------|
|7---7---7---7---7---7---7---7---|
|7---7---7---7---7---7---7---7---|
|5---5---5---5---5---5---5---5---|
 
 |       |       |       |        
|--------------------------------|
|--------------------------------|
|--------------------------------|
|2---2---2---2---2---2---2---2---|
|2---2---2---2---2---2---2---2---|
|0---0---0---0---0---0---0---0---|


Tap to rate this tab
 
# A B C D E F G H I J K L M N O P Q R S T U V W X Y Z