Song name
# A B C D E F G H I J K L M N O P Q R S T U V W X Y Z

Kyteman - Sorry chords

Highlighted       Show chord diagrams
-----------------------------------------------------------------
                             Sorry - Kyteman
-----------------------------------------------------------------
Tabbed by: deHufter
E-mail: kurtkill@hotmail.com

Tuning: standard

Chords played:

   Gm  Eb Cm  D  Am Bb  G
e|--3--6---3--5--0---1--3--|
B|--3--8---4--7--1---3--3--|
G|--3--8---5--7--2---3--4--|
D|--5--8---5--7--2---3--5--|
A|--5--6---3--5--0---1--5--|
E|--3-------------------3--|

Intro + 'Verse':

Gm - Eb - Cm - D

Gm - Eb - Cm - D - Gm

Bridge to climax:

Gm - Am - Bb - Cm - D

Then again:

Gm - Eb - Cm - D

Gm - Eb - Cm - D - Gm

It ends on a G instead of Gm

Have fun!

Tap to rate this tab
# A B C D E F G H I J K L M N O P Q R S T U V W X Y Z