Song name
# A B C D E F G H I J K L M N O P Q R S T U V W X Y Z

La Guns - The Ballad Of Jayne tab

                              L.A Guns- The Ballad of Jayne

Tabbed by: Mark Arvin Vidad
Email:blink_me@hotmail.com


Tuning: Half Step Down
Eb Ab Db Gb Bb Eb

Before guitar solo:

e|-12-13-15-13-12-------14-15-17-15-14--------12-13-15-13-12h13p12--|
B|13-------------13--15----------------15--13-------------------13--|
G|------------------------------------------------------------------|
D|------------------------------------------------------------------|
A|------------------------------------------------------------------|
E|------------------------------------------------------------------|


Guitar solo


e|-------------------------------------------------------------------------------|
B|--------------------15---------------------------------------------------------|
G|-------12-14-14b-14---14b-12h14p12---------12-12-------14-14-12-14b-14b--------|
D|-12/14------------------------------12h14--------14h16-------------------------|
A|-------------------------------------------------------------------------------|
E|-------------------------------------------------------------------------------|

e|-----12-14-15-17-15-14-15----8-7-8-10-8-7h8p7-----------|
B|----------------------------------------------10-8-7-8--|
G|-12-----------------------------------------------------|
D|--------------------------------------------------------|
A|--------------------------------------------------------|
E|--------------------------------------------------------|


e|---------------------------------------------------------------------------|
B|---------------------------------------------------------------------------|
G|------5-7-5p7---5-------------------------------5-7-5p7---5----------------|
D|-5h7----------7---7-5h7-5----5h7-5-5h7-55--5h7----------7---7-5h7-5-----5--|
A|---------------------------7-----------------------------------------7-----|
E|---------------------------------------------------------------------------|


e|-------------------------------------------------------------------------------|
B|-------------------------------------------------------------------------------|
G|--7b---------------------------------------------------------------------------|
D|-----7b------------------------------------------------------------------------|
A|-------------------------------------------------------------------------------|
E|-------------------------------------------------------------------------------|

| /  slide up
| \  slide down
| h  hammer-on
| p  pull-off

If you have any comments or suggestion
emial or add me
80s and 90s band forever!

ROCK & Roll
Tap to rate this tab
 
# A B C D E F G H I J K L M N O P Q R S T U V W X Y Z