Song name
# A B C D E F G H I J K L M N O P Q R S T U V W X Y Z

La Guns - Ballad Of Jayne tab

Help us improve GuitareTab! Take a short survey!
 Cadd2      C                                    G          C

eb------------0-------------0------------0--------------3---------0------|
Bb-------3----1--------3----1-------3----1---1^0--------3-3-------1^0----|
Gb---------0--0----------0--0---------0--0-------0------0--0-----0---0---|
Db------------2-------------2------------2------------0-----0---2-----2--|
Ab---3/5------3---3/5-------3---3/5------3-----------2-------2-3-------3-|
Eb------------x-------------x------------x----------3--------------------|

     G           Cadd2     C

eb-------3-----------------0----------|
Bb-------3-3----------3----1---1^0----|
Gb-------0--0-----------0--0------0---|
Db-----0-----0-------------2----------|
Ab----2-------2--3/5-------3----------|
Eb---3---------------------x----------|

BASICILY THAT IS RYTHYM  REAPEAT THROUGHOUT BUT WHEN YOU GET TO SOLO JUST DO C AND G2 ")

solo


e|-12-13-15-13-12-------14-15-17-15-14--------12-13-15-13-12h13p12--|
B|13-------------13--15----------------15--13-------------------13--|
G|------------------------------------------------------------------|
D|------------------------------------------------------------------|
A|------------------------------------------------------------------|
E|------------------------------------------------------------------|


Guitar solo


e|--------------------------------------------------------------------------|
B|--------------------15----------------------------------------------------|
G|-------12-14-14b-14---14b-12h14p12---------12-12-------14-14-12-14b-14b---|
D|-12/14------------------------------12h14--------14h16--------------------|
A|--------------------------------------------------------------------------|
E|--------------------------------------------------------------------------|

e|-----12-14-15-17-15-14-15----8-7-8-10-8-7h8p7-----------|
B|----------------------------------------------10-8-7-8--|
G|-12-----------------------------------------------------|
D|--------------------------------------------------------|
A|--------------------------------------------------------|
E|--------------------------------------------------------|


e|-----------------------------------------------------------------------------|
B|-----------------------------------------------------------------------------|
G|------5-7-5p7---5-------------------------------5-7-5p7---5------------------|
D|-5h7----------7---7-5h7-5----5h7-5-5h7-55--5h7----------7---7-5h7-5-----5----|
A|---------------------------7-----------------------------------------7-------|
E|-----------------------------------------------------------------------------|


e|--------------------------------------------------------------------------|
B|--------------------------------------------------------------------------|
G|--7b----------------------------------------------------------------------|
D|-----7b-------------------------------------------------------------------|
A|--------------------------------------------------------------------------|
E|--------------------------------------------------------------------------|
Related for Ballad Of Jayne tab