Song name
# A B C D E F G H I J K L M N O P Q R S T U V W X Y Z

La Rondalla De Saltillo - Corazon De Roca tab

                                Corazón de Roca                                 


                              La Rondalla de Saltillo

Está en círculo de F#, no en G.

   
E||--------------------1--|--2--4-2-1-----2--4-2-1-----|--4--------6----4--6--|
B||--------------2--4-----|------------4------------4--|----------------------|
G||-----------------------|----------------------------|----------------------|
D||-----------------------|----------------------------|----------------------|
A||-----------------------|----------------------------|----------------------|
E||-----------------------|----------------------------|----------------------|


        
-----------6----5----|--4-----------------||
--7------------------|-----------6--------||
---------------------|--------------------||
---------------------|--------------------||
---------------------|--------------------||
---------------------|--------------------||



_______________________________________________________________________________


Si lo prefieren, aquí está con afinación de medio tono abajo.



E||-----------------0--2--|--3--5-3-2--0--3--5-3-2--0--|--5--------7----5--7--|
B||--------------3--------|----------------------------|----------------------|
G||-----------------------|----------------------------|----------------------|
D||-----------------------|----------------------------|----------------------|
A||-----------------------|----------------------------|----------------------|
E||-----------------------|----------------------------|----------------------|


        
-----------7----6----|--5-----------------||
--8------------------|-----------7--------||
---------------------|--------------------||
---------------------|--------------------||
---------------------|--------------------||
---------------------|--------------------||



Dudas o comentarios  »»»» muso_1.618@msn.com


saludos
Tap to rate this tab
 
# A B C D E F G H I J K L M N O P Q R S T U V W X Y Z