Song name
# A B C D E F G H I J K L M N O P Q R S T U V W X Y Z

La Rue Ketanou - Pepe chords

Highlighted       Show chord diagrams
// Intro : 

 ** En fait l'intro à la guitare est jouée avec l'accordéon normalement,  
   j'ai fais un arrangement des deux afin de remplacer l'accordéon. 

 **   / = slide 
      h = hammer on 


|------0-----7--7-------5-/8--10--8--7----12-10-8-7---7--7-8-8-8-7---| 
|-----0-----8--8--8-8-8------------------------------8--8------------| 
|----0---------------------------------------------------------------| 
|---2----------------------------------------------------------------| 
|--2-----------------------------------------------------------------| 
|-0------------------------------------------------------------------| 


|--7-7-5---3--5-7-----------5-7--/10-10-10-10----| 
|---------------------5-7-8----------------------| 
|------------------------------------------------| 
|------------------------------------------------| 
|------------------------------------------------| 
|------------------------------------------------| 


|--10-8-7-10-8-7-10-8-7-10-8-7-10--8--7/12-12-12-10-8-7--7h8-8--8-8--| 
|--------------------------------------------------------------------| 
|--------------------------------------------------------------------| 
|--------------------------------------------------------------------| 
|--------------------------------------------------------------------| 
|--------------------------------------------------------------------| 


|--7---7-7-5---5-5--------------| 
|-------------------8--8--7-----| 
|---------------------------9---| 
|-------------------------------| 
|-------------------------------| 
|-------------------------------| 


// Couplets 

 ** Accords en barré naturellement :) 
    C'est le schéma suivant tout le long de la chanson : 
     
    Em    G    Am   Em 
    Em    G    Am G Em 
   

Em       G      Am     Em 
Hé dit Pépé tu trempais dans ta bière un peu toute ton haleine 
Em         G       Am G      Em 
Tu voyais passer quelques fois les sirènes dans le fond de ton verre 

Et tu chantais en cœur avec elles
Cent milles ritournelles,
Et tu chantais, Pépé, en cœur avec elles
Cent milles ritournelles

Eh! dis Pépé t'éclaboussais Belleville
Avec toutes tes histoires,
Le vieux quartier se souvient quelque part
Du grand large et des îles

Dans le troquet ça prenait d'la place 
Et on buvait la tasse,
Dans le troquet ça prenait d'la place 
Et on buvait la tasse

Eh! dis Pépé, on n'a jamais trop su 
Si t'étais bien capitaine,
En tout cas t'en avais la dégaine, 
Les vices et les vertus

On écoutait des nuits toutes entières, 
Les légendes de la mer,
On écoutait des nuits toutes entières, 
Les légendes de la mer 

Dis Pépé, il nous manque un pilier,
Le comptoir, il est bancal,
Où c'est-y qu't'es passé? 
Elle mousse derrière tes voiles,
L'écume des bières, Pépé!

Lalalaï ……………. 
allez chacun sa cavalière, 
en l'honneur d'un Pépé marin de Belleville, 
faites tourner la ritournelle
Tap to rate this tab
# A B C D E F G H I J K L M N O P Q R S T U V W X Y Z