Song name
# A B C D E F G H I J K L M N O P Q R S T U V W X Y Z

La Vela Puerca - Clones tab

-------------------------------------------------------------------------------
			     Clones - La Vela Puerca
-------------------------------------------------------------------------------
Tabbed by: JM RN'R
Email: juanmania14@hotmail.com

It's not perfect but...

Tuning: Standart

e|----------||-------------------------------------------------||------------|
B|--3-2-0---||---2~--------------------------------------------||------------|
G|--------2-||-------------------------------------------------||-x2---------|
D|----------||----------------------------------------------4~-||------------|
A|----------||------4-5-4-0----------5~----4-5-2--4--5--4-5----||------------|
E|----------||----------------3-2-3----------------------------||------------|

e|---------------------------------------------------------------------------|
B|---------------------------------------------------------------------------|
G|---------------------2~----------------------------------------------------|
D|---4~--5~--7~---2h4--------------------------------------------------------|
A|---------------------------------------------------------------------------|
E|---------------------------------------------------------------------------|




| /  slide up
| \  slide down
| h  hammer-on
| p  pull-off
| ~  vibrato
| +  harmonic
| x  Mute note
===============================================================================
Tap to rate this tab
# A B C D E F G H I J K L M N O P Q R S T U V W X Y Z