Song name
# A B C D E F G H I J K L M N O P Q R S T U V W X Y Z

Lacrimas Profundere - Black tab

Help us improve GuitareTab! Take a short survey!
This is the song black by lacrimas profundere
Standard tuning
short and to the point so dont diss it

tabbed by Jarrod Blankenship

intro:

-7---3--2----3---|   x3
-----------------|
-----------------|
-----------------|
-----------------|
-----------------|

then
--7---3--7--3------------------------------|
-------------------------------------------|
-------------------------------------------|
-------------------------------------------|
-------------------------------------------|
-------------------------------------------|

chorus:
----|---|---|---|-----------------|
----|---|---|---|-----------------|  this is short i know but its 100% right
----|---|---|---|-----------------|
--2-|---|---|---|-----------------|
--2-|--5|-7-|-9-|-----------------|
----|--3|-5-|-7-|-----------------|  each x8 or something

verse:  palm mute it
---|---|---|---|
---|---|---|---|
---|---|---|---|
-2-|---|---|---|
-2-|-5-|-7-|-5-|  repeat a few times
---|-3-|-5-|-3-|

solo like part:
------------|
------------|
------------|
------------|
--9-8-6-8-6-|
------------|
Related for Black tab