Guitaretab - guitar tabs
Song name
# A B C D E F G H I J K L M N O P Q R S T U V W X Y Z

Lacuna Coil - Closer tab

-------------------------------------------------------------------------------
			     Closer - Lacuna Coil
-------------------------------------------------------------------------------
Tabbed by:khoang92
Email:khoang92@gmail.com

Tuning:Standard

bass solo...
then

Intro & Chorus's
e|---------------------------------------------------------------------------|
B|---------------------------------------------------------------------------|
G|---------------7-(x4)------------------------------------------------------|
D|--------7-(x9)-5-----------------------------------------------------------|
A|-7-(x5)-5------------------------------------------------------------------|
E|-5-------------------------------------------------------------------------|
[ Tab from: http://www.guitaretab.com/l/lacuna-coil/155688.html ]
Verses (listen for the correct rhythm)
e|---------------------------------------------------------------------------|
B|---------------------------------------------------------------------------|
G|---------------------------------------------------------------------------|
D|---------------------------------------------------------------------------|
A|-7-5-3-2-(x7)-77775532-----------------------------------------------------|
E|-5-3-1-0------55553310-----------------------------------------------------|

Solo in final chorus's
e|---------------------------------------------------------------------------|
B|---------------------------------------------------------------------------|
G|----------9----------9----------9------------9----------9----------9-------|
D|-7-9-10-7---7-9-10-7---7-9-10-7---7-7-9-10-7---7-9-10-7---7-9-10-7---7-7~--|
A|---------------------------------------------------------------------------|
E|---------------------------------------------------------------------------|

end bass solo~
===============================================================================
Related for Closer tab
Advertisement will be closed in 10 seconds