Song name
# A B C D E F G H I J K L M N O P Q R S T U V W X Y Z

Lady Gaga - Poker Face chords

Highlighted       Show chord diagrams
Lady Gaga
Poker Face
The Fame
2008
Submitted by: paramore_fans@yahoo.com

Key: B

Tuning: Standard EADGBe

Chords used:
G#m -   466444
Ebm -   x68876
E -     022100
B -     x24442
F# -    244322
F#/Bb - x143xx


Intro: G#m-Ebm-G#m-F#- x6

Synthesizer:
e|---------------------------------|
B|-0-0-0-0-0-0-0-0-0-0-0-0-2-0-2-0-|
G|---------------------------------|
D|---------------------------------|
A|---------------------------------|
E|---------------------------------|

e|---------------------------------|
B|-4-4-4-4-4-4-4-4-4-4-4-4-5-4-5-4-|
G|---------------------------------|
D|---------------------------------|
A|---------------------------------|
E|---------------------------------|

e|---------------------------------|
B|-0-0-0-0-0-0-0-0-0-0-0-0-2-0-2-0-|
G|---------------------------------|
D|---------------------------------|
A|---------------------------------|
E|---------------------------------|

e|---------------------------------|
B|-4-4-4-4-4-4-4-4-4-4-4-4-5-4-5-4-|
G|---------------------------------|
D|---------------------------------|
A|---------------------------------|
E|---------------------------------|


Verse 1:
G#m        Ebm
   I wanna hold them like
     G#m         F#
they do in Texas please
G#m                Ebm
Fold them let them hit me raise
   G#m            F#
it baby stay with me (I love it)
G#m           Ebm
Love Game intuition play
    G#m                   F#
the cards with Spades to start
    G#m             Ebm
And after he's been hooked I'll
         G#m               F#
play the one that's on his heart


Refrain:
G#m      Ebm G#m
Oh oh oh oh ohhhh
    F#
ohh-oh-E-ohh-oh-oh
G#m             Ebm
   I'll get him hot show
G#m           F#
him what I've got
G#m      Ebm G#m
Oh oh oh oh ohhhh
    F#
ohh-oh-E-ohh-oh-oh
G#m             Ebm
   I'll get him hot show
G#m           (hold)
him what I've got


Chorus:
G#m
   Can't read my Can't read my
E                      B
   No he can't read my poker face
 F#/Bb
(She's got me like nobody)
G#m
   Can't read my Can't read my
E                      B
   No he can't read my poker face
 F#/Bb
(She's got me like nobody)


Post Chorus:
G#m      Ebm
   P-p-p-poker face
  G#m     F#
p-p-poker face
(Mum mum mum mah)
G#m      Ebm
   P-p-p-poker face
  G#m     F#
p-p-poker face
(Mum mum mum mah)


Verse 2:
G#m        Ebm
   I wanna roll with him a
G#m               F#
hard pair we will be
G#m         Ebm         G#m
   A little gambling is fun
                 F#
when you're with me (I love it)
G#m           Ebm
   Russian Roulette is not
    G#m            F#
the same without a gun
    G#m            Ebm
And baby when it's love if it's
    G#m            F#
not rough it isn't fun fun


(Repeat Refrain)
(Repeat Chorus)
(Repeat Post Chorus)


Guitar Solo: G#m-Ebm-G#m-F#- x2
e|---------------------------------------------------|
B|----4-3--0-----4-3-4-0------4-3--0-----4-3-4-0-----|
G|-1----------1------------1----------1------------1-|
D|-----------------------4-----------------------4---|
A|---------------------------------------------------|
E|---------------------------------------------------|


Bridge:
        G#m
I won't tell you
       Ebm
that I love you
        Ebm
Kiss or hug you
          F#
Cause I'm bluffing
        G#m
with my muffing
        Ebm             G#m
I'm not lying I'm just stunning
        F#
with my love-glue-gunning
G#m            Ebm            G#m
   Just like a chick in the casino
          F#            G#m
Take your bank before I pay you out
  Ebm          G#m
I promise this promise this
           F#
Check this hand cause I'm marvelous


(Repeat Chorus twice)


Outro:
G#m
   P-p-p-poker face
  E
p-p-poker face
B
   P-p-p-poker face
  F#/Bb
p-p-poker face
(She's got me like nobody)
G#m
   P-p-p-poker face
  E
p-p-poker face
(Mum mum mum mah)
B
   P-p-p-poker face
  F#/Bb
p-p-poker face
(Mum mum mum mah)
(Repeat until fade out)
Tap to rate this tab
 
# A B C D E F G H I J K L M N O P Q R S T U V W X Y Z