Song name
# A B C D E F G H I J K L M N O P Q R S T U V W X Y Z

Lady Pank - Zawsze Tam Gdzie Ty tab

[intro]

   C                            a
|----------------------------|-----------------------------|
|--1-----1--1--1h3-----1--0--|--1-----3h5--5--0h1--1p0--0--|
|--0-----0--0----------0-----|--2-----0-------0---------0--|
|--2-----2--2----------2-----|--3-----0-------0---------0--|
|--3-----3--3----------3-----|--0--------------------------|
|----------------------------|-----------------------------|

   G7
|-------------------------x--x--8-----8--3----3------------3-----|
|--------3----------3--x--x--x--8h10--8--3h5--3h5p3--------3h5---|
|--0-----0----------0--x-----------------------------5-----------|
|--0-----0----------0--x-----------------------------------------|
|--2-----2----------2--x-----------------------------------------|
|--3-------------------------------------------------------------|

   C                               a
|----------------------------|-----------------------------|
|--1-----1--1--1h3-----1--0--|--1-----3h5--5--0h1--1p0--0--|
|--0-----0--0----------0-----|--2-----0-------0---------0--|
|--2-----2--2----------2-----|--3-----0-------0---------0--|
|--3-----3--3----------3-----|--0--------------------------|
|----------------------------|-----------------------------|

   G
|-----------------------x--x--8-----8--3----3----------------------|
|--------3--------3--x--x--x--8h10--8--3h5--3h5p3------------3\(0)-|
|--0-----0--------0--x---------------------------------5-----------|
|--0-----0--------0--x---------------------------------------------|
|--2-----2--------2--x---------------------------------------------|
|--3---------------------------------------------------------------|

[zwrotka]

|-----------------------|-----------------------|
|--------1------------1-|--------1------------1-|
|-----0------------0----|------0-----------0----|
|-----------------------|-----------------------|
|-3-----------3---------|-0-----------0---------|
|-----------------------|-----------------------|

|-----------------------|-----------------------|
|---------1-----------1-|--------1------------1-|
|------0-----------0----|-----0-----0------0----|
|-----------------------|-------------3---------|
|-----------------------|-3---------------------|
|-3-----------3---------|-----------------------|

Zamienię...
By zabrał...
Poskładam...
Żeby znalazł..

[refren]

  F                   G
   Już teraz...
  C                    a
   By do ciebie...
  F                      G
   Nie znam słów...
  C                   a|
   Jeśli tylko...
        F           G
   Być tam...

|-8-----8--3----3-----|
|-8h10--8--3h5--3h5p3-|
|---------------------|
|---------------------|
|---------------------|
|---------------------|

[zwrotka]

grają 2 gitary, jedna na akordach a druga z tabulatury zwrotki

C                 a           G
Nie pytaj...
Płyniemy...
Poskładam...
By już...

[refren]


powtórzyć intro

[refren]

   Już teraz...
   By do ciebie...
   Nie znam...
   Jeśli...
   Być tam...
   Budzić się...
   Być tam...
   Żegnać się...
   Być tam...
   Budzić się...
   Być tam...

[wstawka] grają 2 gitary, jedna na akordach 2ga z taulatury:

  C              a           F           G
|-0---------3-|-----------|--------3--|----------|
|-1---0--1----|--0--1-----|--0--1-----|--0--1--1-|
|-0-----------|--------2--|-----------|----------|
|-2-----------|-----------|-----------|----------|
|-3-----------|-----------|-----------|----------|
|-------------|-----------|-----------|----------|

   C            a           F           G      C
|--------3--|------------|----------|-------|------|
|--0--1-----|---0--1-----|--0--1----|-------|------|
|-----------|---------2--|--------0-|--(0)--|------|
|-----------|------------|----------|-------|------|
|-----------|------------|----------|-------|------|
|-----------|------------|----------|-------|------|

                              Zawsze tam gdzie TY   Yee
Tap to rate this tab
# A B C D E F G H I J K L M N O P Q R S T U V W X Y Z