Song name
# A B C D E F G H I J K L M N O P Q R S T U V W X Y Z

Lagwagon - The Worst tab

Help us improve GuitareTab! Take a short survey!
The Worst (Lagwagon)

Here are some modifications related to the tabs sent by Sancho D'Marco. Maybe these tabs 
some parts come even closer to the original...

Intro: (Chords)
------------------------------------------|
------------------------------------------|
--4------4------4------4------5-----------|
--5------5------5------5------5-----------|
--7------6------5------4------3-----------|
------------------------------------------|

2nd guitar:
------------10-----------------10-----------------10---------------3---5---3-----------|
-------12-------12-------12-------12-------12-------12-------5-------------------------|
--12-----------------11-----------------10---------------------------------------------|
---------------------------------------------------------------------------------------|
---------------------------------------------------------------------------------------|
---------------------------------------------------------------------------------------|

Verse:
    (Em)                                                    (C)
--------------------------------------------------------------------------------|
--------------------------------------------------------------------------------|
--------------------------------------------------------------------------------|
---7---7---7--7--7----5----5----5----5-----7---7---7--7--7-----5--5--5--5-------|
---7---7---7--7--7----7----7----7----7-----7---7---7--7--7-----7--7--7--7-------|
------------------------------------------------8---8---8--8--8-----8--8--8--8--|

     (D)                                                           (Bm)
----------------------------------------------------------------------------------------|
----------------------------------------------------------------------------------------|
----------------------------------------------------------------------------------------|
----7---7---7--7--7--7----5---5---5---5-------------------------------------------------|
----5---5---5--5--5--5----5---5---5---5--------9---9--9--9--9----10--10---10---9--------|
----------------------------------------------------7---7--7--7--7----7----7----7----7--|

Refrain:

G  - F#/G - Em -  D  -  C
Related for The Worst tab