Song name
# A B C D E F G H I J K L M N O P Q R S T U V W X Y Z

Lagwagon - Lazy tab

Lazy by Lagwagon

i think the song is played like that.If you found some errors or you have some
questions,just e-mail me at hell_krypt@hotmail.com



 INTRO:

 ----------|
 ----------|
 ----------|
 ----------|
 0-5-7-9-x-|
 ----------|

 MAIN PART:

 C               B               E               D
 ----------------------------------------------------------------|
 ----------------------------------------------------------------|
 5---------------4-------------------------------7---------------|
 5---------------4---------------2---------------7---------------|
 3---------------2---------------2---------------5---------------|
 --------------------------------0-------------------------------|


 G               B            
 ---------------------------------|
 ---------------------------------|
 12--------------16--16--16--x----|
 12--------------16--16--16--x----|
 10--------------14--14--14--x----|
 ---------------------------------|


 E               D               C               B
 ----------------------------------------------------------------|
 ----------------------------------------------------------------|
 9---------------7---------------5---------------4---------------|
 9---------------7---------------5---------------4---------------|
 7---------------5---------------3---------------2---------------|
 ----------------------------------------------------------------|


 G               D               C               B
 ----------------------------------------------------------------|
 ----------------------------------------------------------------|
 ----------------7---------------5---------------4---------------|
 5---------------7---------------5---------------4---------------|
 5---------------5---------------3---------------2---------------|
 3---------------------------------------------------------------|

 (palm-muted part)
 E               C               D               C
 --------------------------------------------------------|
 --------------------------------------------------------|
 ----------------5---5---5---5---7---7---7---7---4---4---|
 2---2---2---2---5---5---5---5---7---7---7---7---4---4---|
 2---2---2---2---3---3---3---3---5---5---5---5---3---3---|
 0---0---0---0-------------------------------------------|


 E               C               D               C
 --------------------------------------------------------|
 --------------------------------------------------------|
 ----------------5---5---5---5---7---7---7---7---4---4---|
 2---2---2---2---5---5---5---5---7---7---7---7---4---4---|
 2---2---2---2---3---3---3---3---5---5---5---5---3---3---|
 0---0---0---0-------------------------------------------|


 E               C               D             C
 --------------------------------------------------------|
 --------------------------------------------------------|
 ----------------5---5---5---5---7---7---7---7-4-x---4---|
 2---2---2---2---5---5---5---5---7---7---7---7-4-x---4---|
 2---2---2---2---3---3---3---3---5---5---5---5-3-x---3---|
 0---0---0---0-------------------------------------------|


 E               D               A               C       B
 ----------------------------------------------------------------|
 ----------------------------------------------------------------|
 ----------------7-------------------------------5-------4-------|
 2---------------7---------------7---------------5-------4-------|
 2---------------5---------------7---------------3-------2-------|
 0-------------------------------5-------------------------------|


 E               D               A               G  B  D 
 ----------------------------------------------------------------|
 ----------------------------------------------------------------|
 9---------------7----------------------------------4--7---------|
 9---------------7---------------7---------------5--4--7---------|
 7---------------5---------------7---------------5--2--5---7-9---|
 --------------------------------5---------------3---------------|



 MAIN PART ONCE MORE.


 play this times 
 E               D               A               C       B
 ----------------------------------------------------------------|
 ----------------------------------------------------------------|
 9---9---9-9-9-7-----7---7---7-------------------5-------4-------|
 9---9---9-9-9-7-----7---7---7---7---7---7---7---5-------4-------|
 7---7---7-7-7-5-----5---5---5---7---7---7---7---3-------2-------|
 --------------------------------5---5---5---5-------------------|

 play this 4 times 
 E               D               A              
 ------------------------------------------------|
 ------------------------------------------------|
 9---9---9-9-9-7-x-4-2-0-------2---------0-------|
 9---9---9-9-9-7-x-------4-2-0-2---2-0-----2-----|
 7---7---7-7-7-5-x-------------0-------3-----3-x-|
 ------------------------------------------------|


 THEN THE MAIN PART AGAIN, CUT AFTER FIRST LINE OF MUTING
Tap to rate this tab
# A B C D E F G H I J K L M N O P Q R S T U V W X Y Z