Song name
# A B C D E F G H I J K L M N O P Q R S T U V W X Y Z

Lake Street Dive - Stop Your Crying tab

-----------------------------------------------------------------
Stop Your Crying - Lake Street Dive
-----------------------------------------------------------------
Tabbed by: Emmett Mills
Email: emills29@gmail.com
Tuning: Standard
Song by: Mike Calabrese

Send me an email if you want me to tab out your favorite Lake Street Dive song.  
It will probably take me a few weeks but I will eventually get around to it.

The lyrics weren't online so I had to figure them out myself.  There are a few 
lines that I couldn't quite get.


Intro:

   B
e|---------------------------------------------------------------|
B|-4---4--4---4---4--4-------------------------------------------|
G|-4---4--4---4---4--4-------------------------------------------|
D|-4---4--4---4---4--4-------------------------------------------|
A|-2---2--2---2---2--2-------------------------------------------|
E|---------------------------------------------------------------|

   B          G#m B      G#m    F#m    E        
e|----------------------------------------0----------------------|
B|-4---4--4-------4--4--------------------0----------------------|
G|-4---4--4-------4--4--------------------1----------------------|
D|-4---4--4---6---4--4---6--6---4--4---2--2----------------------|
A|-2---2--2---6---2--2---6--6---4--4---2--2-----4b5r4------------|
E|------------4----------4--4---2--2---0--0----------------------|

   B          G#m B      G#m    F#m    E     
e|----------------------------------------0----------------------|
B|-4---4--4-------4--4--------------------0----------------------|
G|-4---4--4-------4--4--------------------1----------------------|
D|-4---4--4---6---4--4---6--6---4--4---2--2----------------------|
A|-2---2--2---6---2--2---6--6---4--4---2--2-----4b5r4------------|
E|------------4----------4--4---2--2---0--0----------------------|

First Verse:

B          G#m B       G#m       F#  E
I get your messages, I read them all aloud
e|---------------------------------------------------------------|
B|--4-4-4-4-4-4-4-4-4-4-2-2-0-0-0--------------------------------|
G|--4-4-4-4-4-4-4-4-4-4-3-3-1-1-1--------------------------------|
D|--4-4-4-4-6-6-4-4-6-6-4-4-2-2-2--------------------------------|
A|--2-2-2-2-6-6-2-2-6-6-4-4-2-2-2--4b5r4-------------------------|
E|----------4-4-----4-4-2-2-0-0-0--------------------------------|

B               G#m        B                 G#m  F#       Eb7 
My friends they roll their eyes, shake their heads, make a frown
e|---------------------------------------------------------------|
B|--4-4-4-4-4-4-4-4-4-4-2-2----4---------------------------------|
G|--4-4-4-4-4-4-4-4-4-4-3-3---6----------------------------------|
D|--4-4-4-4-6-6-4-4-6-6-4-4--5-----------------------------------|
A|--2-2-2-2-6-6-2-2-6-6-4-4-6------------------------------------|
E|----------4-4-----4-4-2-2--------------------------------------|

       G#m           C#
But it seems so well intentioned

       B          E          F#    Eb7
And at once i'm beginning to fall
e|---------------------------------------------------------------|
B|----4-------5-------7-------8-8--------------------------------|
G|------4-------4-------6-----6-6--------------------------------|
D|--4-----4-6-----6-8-----8---8-8--------------------------------|
A|---------------------------------------------------------------|
E|---------------------------------------------------------------|

            G#m           C#
There's not point to even mention you at all


   B          G#m B      G#m    F#m    E        
e|----------------------------------------0----------------------|
B|-4---4--4-------4--4--------------------0----------------------|
G|-4---4--4-------4--4--------------------1----------------------|
D|-4---4--4---6---4--4---6--6---4--4---2--2----------------------|
A|-2---2--2---6---2--2---6--6---4--4---2--2-----4b5r4------------|
E|------------4----------4--4---2--2---0--0----------------------|

Second Verse:

B    G#m B G#m    F#        E  
I am a ??? double chalk and line
B         G#m     B        G#m  F#    Eb7
My rage a ticking bomb one shot and a cry
      G#m            C#
But I know you still remember
         B        E       F#     Eb7
That I'm not very hard to disarm
        G#m            C#            F#
And you know I won't remember you at all


Chorus:

   B         E     Ebm
So stop your crying
              C#m           B            E    Ebm   C#m
You know I'll be the one to let you back in
       B         E   Ebm
I'm so sick of lying
          C#m           Em
Telling myself it's the end
  B               G#m  F# E
I know better but here I go again


Post Chorus:

B  G#m  C#  E x2
B  G#m  B


Third Verse:
B      G#m  B        G#m    F#       E
I am a photograph, a moment stuck in time
B      G#m  B        G#m    F#       Eb7
???
        G#m              C#
But the girl I still see clearly
       B             E        F#    Eb7
With a heart that is ready to love
       G#m            C#          F#
It's a ??? that isn't nearly big enough

Chorus:

   B         E     Ebm
So stop your crying
              C#m           B            E    Ebm   C#m
You know I'll be the one to let you back in
       B         E   Ebm
I'm so sick of lying
          C#m           Em
Telling myself it's the end
  B               G#m  F# E
I know better but here I go 


   B         E     Ebm
So stop your crying
              C#m           B            E    Ebm   C#m
You know I'll be the one to let you back in
       B         E   Ebm
I'm so sick of lying
          C#m           Em
Telling myself it's the end
   B         G#m    C#
So stop your crying
              E             B            G#m    C#   E
You know I'll be the one to let you back in
       B         G#m   C#
I'm so sick of lying
          E             B 
Telling myself it's the end
     G#m  C#     E        B G#m
Well now, here I go again
C#     E        B
Here I go again
     G#m  C#     E        B G#m
Well now, here I go again
C#     E
Here I go again

Outro:

   B          G#m B      G#m    F#m    E        
e|----------------------------------------0----------------------|
B|-4---4--4-------4--4--------------------0----------------------|
G|-4---4--4-------4--4--------------------1----------------------|
D|-4---4--4---6---4--4---6--6---4--4---2--2----------------------|
A|-2---2--2---6---2--2---6--6---4--4---2--2-----4b5r4------------|
E|------------4----------4--4---2--2---0--0----------------------|

   B          G#m B      G#m    F#m    E     
e|----------------------------------------0----------------------|
B|-4---4--4-------4--4--------------------0----------------------|
G|-4---4--4-------4--4--------------------1----------------------|
D|-4---4--4---6---4--4---6--6---4--4---2--2----------------------|
A|-2---2--2---6---2--2---6--6---4--4---2--2-----4b5r4------------|
E|------------4----------4--4---2--2---0--0----------------------|


   B
e|---------------------------------------------------------------|
B|-4---4--4------------------------------------------------------|
G|-4---4--4------------------------------------------------------|
D|-4---4--4------------------------------------------------------|
A|-2---2--2------------------------------------------------------|
E|---------------------------------------------------------------|

End


b = bend
r = release
Tap to rate this tab
# A B C D E F G H I J K L M N O P Q R S T U V W X Y Z