Song name
# A B C D E F G H I J K L M N O P Q R S T U V W X Y Z

Lamb Of God - Grace tab

This is a representation of the authors music and is intended for the at home guitar player. 
This is not to be transmitted or otherwise used for any other purpose.

Grace
Lamb of God
Wrath-Acoustic Intro

--------------------------------------------------------------------------------



|---------------------------------------------------------|
|--------------------------------------------8-10-8p6h8---|
|10-14-12h14p12-14-10--10/12-12/14-14/2-2/7-7-------------|
|---------------------------------------------------------|
|---------------------------------------------------------|
|---------------------------------------------------------|

|---------------------------------------------------------|
|---------------------------------------------------------|
|19-9-7-10-9-7---9-7-----7--------------------------------|
|--------------10----10-8-10-8-7-10-8-7-------------------|
|---------------------------------------10/17-17-15h17p15-|
|---------------------------------------------------------|

|---------------------------------------------------------|
|---------------------------------------------------------|
|---------------------------------------------------------|
|---------------------------------------------10-12-14-15-|
|15-13-13/12-12/13-13b----------------8/10-12-------------|
|----------------------13-10-12-10-12---------------------|

|---------------------------------------------------------|
|---------------------/15---15--15--13h15p13-11-----------|
|-----------------------------------------------10-17-15--|
|14-12-14-12----------------------------------------------|
|------------15-13----------------------------------------|
|------------------17-------------------------------------|

|---------------------------------------------------------|
|---------------------------------------------------------|
|14----15-14-------14----------------------14-------------|
|---17-------17-15----17-15-14-19-17-16----12-12-12/14----|
|---------------------------------------12----------------|
|---------------------------------------------------------|

|---------------------------------------------------------|
|---------------------------------------------------------|
|---------------------------------------------------------|
|14/15-15/14-14/12-12/5-5/7--8------8----5----7-----------|
|----------------------------------------3----5-----------|
|---------------------------------------------------------|
Tap to rate this tab
# A B C D E F G H I J K L M N O P Q R S T U V W X Y Z