Song name
# A B C D E F G H I J K L M N O P Q R S T U V W X Y Z

Landser - Arisches Kind tab

----------------------------------------------------------------------------
			     Arisches Kind - Landser
----------------------------------------------------------------------------

#Pleas ask me when you want to use my interpretation!
#Its my secon or third Tab, enjoy!

Tabbed by: LukyllRecords
Email: lfechne@gmail.com

Tuning: Standart

Verse (Guitar 1):

   Em		D
e|---------|x4|---------3-2-----|x4|---------------------------------------|
B|-0-------|x4|-----3-------3---|x4|---------------------------------------|
G|---0-----|x4|---2---2-------2-|x4|---------------------------------------|
D|-----2---|x4|-0---------------|x4|---------------------------------------|
A|-------2-|x4|-----------------|x4|---------------------------------------|
E|---------|x4|-----------------|x4|---------------------------------------|

Verse (Guitar 2):		    Chorus:

   Em		D		     G   D   A   E	  G   D   A   E
e|-0-0-0-0-|x4|-2-2-2-2-3-2-2-2-|x4|-3.------5.------|x3|-3.------5.--0.---|
B|-0-0-0-0-|x4|-3-3-3-3-3-3-3-3-|x4|-3.--7.--5.--9.--|x3|-3.--7.--5.--0.---|
G|-0-0-0-0-|x4|-2-2-2-2-2-2-2-2-|x4|-4.--7.--6.--9.--|x3|-4.--7.--6.--1.---|
D|-2-2-2-2-|x4|-0-0-0-0-0-0-0-0-|x4|-5.--7.--7.--9.--|x3|-5.--7.--7.--2.---|
A|-2-2-2-2-|x4|-----------------|x4|-5.--5.--7.--7.--|x3|-5.--5.--7.--2.---|
E|-0-0-0-0-|x4|-----------------|x4|-3.------5.------|x3|-3.------5.--0.---|

************************************

| .   let ring as long as you need
| /   slide up
| \   slide down
| h   hammer-on
| p   pull-off
| ~   vibrato
| +   harmonic
| x   Mute note
| b   Bend
| pb  Pre-bend
| br  Bend release
| pbr Pre-bend release
| brb Bend release bend

************************************
Tap to rate this tab
 
# A B C D E F G H I J K L M N O P Q R S T U V W X Y Z