Song name
# A B C D E F G H I J K L M N O P Q R S T U V W X Y Z

Lapd - All My Life tab

----------------------------------------------------------------------------
			    All my life - LAPD
--------------------------------------------
Tabbed by:DrewsGotTheLife
Email:cosmokotter@yahoo.com

Tuning:DGCFAD

These are one of my favorite song by lapd, enjoy!

Intro 4x(the fourth time you hit the pinch harmonic)

|--7----7---6-----6-----5---5--4----4-----------------------------|
|----7------6---6---6-----5----4--4---4----5*---------------------|
|-----------------------------------------------------------------|
|-----------------------------------------------------------------|
|-----------------------------------------------------------------|
|-----------------------------------------------------------------|
Verse 4x
|----------------------------------------------------------------------------|
|----------------------------------------------------------------------------|
|----------------------------------------------------------------------------|
|-3--3-----6-6----8--8--8----9--9--9--9--------------------------------------|
|-3--3-----6-6----8--8--8----9--9--9--9--------------------------------------|
|-1--1-----4-4----6--6--6----7--7--7--7--------------------------------------|

|----------------------------------------------------------------------------|
|----------------------------------------------------------------------------|
|----------------------------------------------------------------------------|
|-3--3-----6-6----8--8--8----9--9----5---------------------------------------|
|-3--3-----6-6----8--8--8----9--9----5---------------------------------------|
|-1--1-----4-4----6--6--6----7--7----3---------------------------------------|

verse 5x
|----------------------------------------------------------------------------|
|----------------------------------------------------------------------------|
|----------------------------------------------------------------------------|
|-3--3-----6-6----8--8--8----9--9--9--9--------------------------------------|
|-3--3-----6-6----8--8--8----9--9--9--9--------------------------------------|
|-1--1-----4-4----6--6--6----7--7--7--7--------------------------------------|

|----------------------------------------------------------------------------|
|----------------------------------------------------------------------------|
|----------------------------------------------------------------------------|
|-3--3-----6-6----8--8--8----9--9----5---------------------------------------|
|-3--3-----6-6----8--8--8----9--9----5---------------------------------------|
|-1--1-----4-4----6--6--6----7--7----3---------------------------------------|

************************************
| * pinch harmonic
| /   slide up
| \   slide down
| h   hammer-on
| p   pull-off
| ~   vibrato
| +   harmonic
| x   Mute note
| b   Bend
| pb  Pre-bend
| br  Bend release
| pbr Pre-bend release
| brb Bend release bend

************************************
Tap to rate this tab
# A B C D E F G H I J K L M N O P Q R S T U V W X Y Z