Song name
# A B C D E F G H I J K L M N O P Q R S T U V W X Y Z

Larry Norman - I Wish Wed All Been Ready tab

-------------------------------------------------------------------------------
			     I Wish We’d all been Ready- Larry Norman
-------------------------------------------------------------------------------
Tabbed by: Lucas
Email: idrinkjp8@yahoo.com

Tuning: Standard

Verse:
e|---2-------2-------2-------2-------3--------3-------2----------------------|
B|--3-3-----2-2-----1-1-----1-1-----3-3------3-3-----3-3----2-----3----2-----|
G|-2---2---2---2---2---2---2---2---0---0----0---0---2---2----2---0-0----2----|
D|0-----0-0-----0-0-----0-0-----0------------------0-------2----------2------|
A|--------------------------------------------------------0----------0-------|
E|--------------------------------3------3-3--------------------3------------|
 Chorus:

e|-2--2--2--2--2—--------0-0-0-0-------0-0-0-0----3-3-3-3-3--------2-2-2-2----|
B|-3--3--3--3--3---------2-2-2-2-------1-1-1-1----3-3-3-3-3--------3-3-3-3----|
G|-2—-2--2--2--2---------2-2-2-2-------0-0-0-0----0-0-0-0-0--------2-2-2-2----|
D|-0—-0--0--0--0---------2-2-2-2-------2-2-2-2----0-0-0-0-0—-------0-0-0-0----|
A|-----------------------0-0-0-0-------3-3-3-3----2-2-2-2-2-------------------|
E|------------------------------------------------3-3-3-3-3-------------------|
   There’s no time to change your mind the son has come and you’ve been left behind 



| /  slide up
| \  slide down
| h  hammer-on
| p  pull-off
| ~  vibrato
| +  harmonic
| x  Mute note
===============================================================================

Tap to rate this tab
 
# A B C D E F G H I J K L M N O P Q R S T U V W X Y Z